Song name
# A B C D E F G H I J K L M N O P Q R S T U V W X Y Z

Dismal Euphony - Trollbundet tab

Help us improve GuitareTab! Take a short survey!
Dismal Euphony - Trollbundet (from "Soria Moria Siott")

Transcripted by Dusk(eclipse@mail.ru).

Sorry there only intro.
All notes are thremolo picked.

Guitar 1
------------------------------------------------------------------------
------------------------------------------------------------------------
------------------------------------------------------------------------
-9-7-5-4-2-1--10-9-7-5-4-2--14-12-14-10-12-9-10--12-10-12-9-10-7-9------
------------------------------------------------------------------------
------------------------------------------------------------------------

Guitar 1
------------------------------------------------------------------------
------------------------------------------------------------------------
------------------------------------------------------------------------
-10-9-10-7-9-5-7--9-2---------------------------------------------------
------------------------------------------------------------------------
------------------------------------------------------------------------

Guitar 2
------------------------------------------------------------------------
------------------------------------------------------------------------
------------------------------------------------------------------------
------------------------------------------------------------------------
------------------------------------------------------------------------
-9-7-5-4-2-4-5-4-5-2--10-9-7-5-4-2-14--14-17-16-14-12-10----------------

Guitar 2
------------------------------------------------------------------------
------------------------------------------------------------------------
------------------------------------------------------------------------
------------------------------------------------------------------------
------------------------------------------------------------------------
-4-----------------5--10------------4-------------9---------------------


Listen to the record for the timings.
Related for Trollbundet tab