Song name
# A B C D E F G H I J K L M N O P Q R S T U V W X Y Z

Dismal Euphony - Flyineye tab

Dismal euphony-Flyineye
Album-Python zero

tabbed by maniac&marja - maniaclunatic@hotmail.com



intro

E|---------------------|----------------------------|
B|---------------------|----------------------------|
G|---------------------|----------------------------|
D|-------3-1-----------|-------3-1---1-1-111--------|
A|-111-4-----3---1-111-|-111-4-----3----------------|
E|-------------4-------|----------------------------|

E|--------------------------------------------------|
B|--------------------------------------------------|
G|--------------------------------------------------|
D|-------3-1--1-------------------------------------|
A|-111-4--------4-3h4p3-1--1-3-4-4-3-1---1----------|
E|-------------------------------------4------------|
Tap to rate this tab
 
# A B C D E F G H I J K L M N O P Q R S T U V W X Y Z