Song name
# A B C D E F G H I J K L M N O P Q R S T U V W X Y Z

Dismember - Casket Garden tab

Casket Garden
By Dismember
Tabbed by Gabriel Hidalgo
tune 2.5 steps down 

Intro
|---------------------------------------------------------------------|
|---------------------------------------------------------------------|
|---------------------------------------------------------------------|
|---------------------------------------------------------------------|
|-3-6-----7h8p7---7h10p7-7h8p7---7h8p7---5h7p5------------------------|
|-1-4--0--------0--------------0-------0------------------------------|

Verse
|-------------------------|
|-------------------------|
|-------------------------|
|-------------------------|
|-2---22----2-2--5-3/6----|
|-0-0-00-00-0-0--3-1/4----|

Chorus
|---------------------------------------------------------------------|
|---------------------------------------------------------------------|
|---------------------------------------------------------------------|
|--------------------------------3---2-3-0-2h3p2~---------------------|
|-2-let ring--8--9--5--8/9/8--5--1------------------------------------|
|-0-----------6--7--3--6/7/6--3---------------------------------------|

That's basically the whole song, these are small parts between verses or
chorus.

|---------------------------------------------------------------------|
|---------------------------------------------------------------------|
|---------------------------------------------------------------------|
|---------------------------------------------------------------------|
|-7h8p7/5-5/7-7-8---7h8p7/5-5/7--7------------------------------------|
|-----------------0----------------6----------------------------------|

|---------------------------------------------------------------------|
|---------------------------------------------------------------------|
|---------------------------------------------------------------------|
|---------7-6---------------------------------------------------------|
|---7h8p7-----5/8----7b8r7--6b7r6-------------------------------------|
|-0----------------0--------------7-----------------------------------|

Solo
|---------------------------------------------------------------------|
|---------------------------------------------------------------------|
|-----------------------------------16~-15~---------------------------|
|-14~-13b14r13----17~-16b17r16--14----------17b18r17------------------|
|--------------14-----------------------------------------------------|
|---------------------------------------------------------------------|

|---------------------------------------------------------------------|
|---------------------------------------------------------------------|
|-16-14-12-----14-12--------------------------------------------------|
|-----------16--------16-14--/17~-------------------------------------|
|---------------------------------------------------------------------|
|---------------------------------------------------------------------|
Tap to rate this tab
# A B C D E F G H I J K L M N O P Q R S T U V W X Y Z