Song name
# A B C D E F G H I J K L M N O P Q R S T U V W X Y Z

Disney - Beauty And The Beast tab

Song: Beauty And The Beast
Artist: Disney
Tuning: C Standard

This is as simple as I could get it. :) and I think it's only the chorus...

C |----------7--9-------------------------------|
G |--12--10-------------------------------------|
Eb|---------------------------------------------|
Bb|----------------10---------------------------|
F |---------------------------------------------|
C |---------------------------------------------|


C |-----------7--9------------------------------|
G |--12--10-------------------------------------|
Eb|-----------------10--------------------------|
Bb|---------------------------------------------|
F |---------------------------------------------|
C |---------------------------------------------|


C |---------------------------------------------|
G |--11--12--9--11--7---------------------------|
Eb|---------------------------------------------|
Bb|---------------------------------------------|
F |---------------------------------------------|
C |---------------------------------------------|

Suggestions TOTALLY welcome...I'm not sure I did this right...
email me at xkellyskwigelfx@yahoo.com :)
Tap to rate this tab
# A B C D E F G H I J K L M N O P Q R S T U V W X Y Z