Song name
# A B C D E F G H I J K L M N O P Q R S T U V W X Y Z

Disney - Beauty And The Beast tab

Beauty and the Beast (Disney)

TABBED by Kira N. Creek
This is my very 1st TAB :D


CAPO 4

    G          C         G         D
E-------------------------------------------------|
B----------0--------------------0--3---3----------|
G-----0---0------0---0-----0---0----2-2-2-2-------|
D----0-0-0--0---2-2-2-2---0-0-0------0---0--------|
A---2---2------3---3-----2---2--------------------|
E-------------------------------------------------|

    Em         C         G         C
E-------------------------------------------------|
B-----0---0---------------------------------------|
G----0-0-0-0-----0---0-----0---0-----0---0--------|
D---2---2-------2-2-2-2---0-0-0-0---2-2-2-2-------|
A--------------3---3-----2---2-----3---3----------|
E-------------------------------------------------|

    G          D         Em        C
E-------------------------------------------------|
B----------0---3---3-------0---0------------------|
G-----0---0-----2-2-2-2---0-0-0-0----0---0--------|
D----0-0-0-------0---0---2---2------2-2-2-2-------|
A---2---2--------------------------3---3----------|
E-------------------------------------------------|

    G                       (SLOW STRUM to Finish)
E---------------------------3---------------------|
B--------( REPEAT )---------0----------THE--------|
G---------------------------0---------------------|
D--------(   x4   )---------0----------END--------|
A---2-----------------------2---------------------|
E--------( TIMES  )---------3---------------------|
Tap to rate this tab
 
# A B C D E F G H I J K L M N O P Q R S T U V W X Y Z