Song name
# A B C D E F G H I J K L M N O P Q R S T U V W X Y Z

Disordered - Disorders Arent For Fun chords

Highlighted       Show chord diagrams
written and tabbed by:   Dion van den Anker 
band name:    Disordered
song:   Disorders aren't for fun
tuning:   Standard
Email:    dion.oomen@gmail.com




         
|---------------------------------------------------------------------------|
Intro  :
                            
 |   Am   | C | G          |
e|-------------------------|                    
B|---1------1--------------|
G|--2-2-0--0----0----------|    3 times then
D|-2---2--2----0-----------| 
A|0------3----2------------|
E|-----------3-------------|

 |           Am            |
e|-------------------------|                    
B|---1-----1---------------|
G|--2-----2----------------|    
D|-2-----2-----------------|
A|0-----0------------------|
E|-------------------------|

Am, C, G
|---------------------------------------------------------------------------|
couplet 1:

Am           C          G
Sometime I'm crazy in my head. 

Am       C          G
Sometime I'm really mad.

Am         C                G
Because disorders aren't to laugh about.

Am           C            G
So don't put stupid words in your mouth.
|---------------------------------------------------------------------------|
Couplet 2:

Am           C          G
People can't do anything about it.

Am           C          G
One day people will know the difference.

Am     C    G            Am
how my life is with this thing.

Am        C        G
It's like a deadly sting.
|---------------------------------------------------------------------------|
Chorus:

Am                   C
Disorders aren't for fun.

G                        Am
It's something i am born with.

Am           C
If you can't live with it.

G                        Am
Then give me the freaking gun!
|---------------------------------------------------------------------------|
Couplet 3:
Am           C         G
It's hard to live with it. 

Am           C       G
It's hard to control it.

Am     C      G
I will always fight.

Am      C        G
Until i have the might. 
|---------------------------------------------------------------------------|
Chorus:

Am                   C
Disorders aren't for fun.

G                        Am
It's something i am born with.

Am           C
If you can't live with it.

G                        Am
Then give me the freaking gun!
|---------------------------------------------------------------------------|
couplet 4:
Am          C
Everytime I fight,

    G              Am
the guys that mess around.

Am                C
About the thing i live with,

G                  Am
i'll make an angry sound.

Am                       C
And hope it gives me the might,

G                     Am
to stop this nonsence now
|---------------------------------------------------------------------------|
Chorus: (2 times)

Am                   C
Disorders aren't for fun.

G                        Am
It's something i am born with.

Am           C
If you can't live with it.

G                        Am
Then give me the freaking gun!
|---------------------------------------------------------------------------|
END!!
|---------------------------------------------------------------------------|
Tap to rate this tab
# A B C D E F G H I J K L M N O P Q R S T U V W X Y Z