Song name
# A B C D E F G H I J K L M N O P Q R S T U V W X Y Z

Dispatch - Godspeed tab

Woodriver Bandits
Little Hannah
Godspeed - Dispatch cover
Tabbed by Owen Sakovics
www.tabsinonefellswoop.com

 C	F	C	F
-3------1-------0-------1-|
-1------1-------1-------1-|
-0------2-------0-------2-|	x6
-2------3-------2-------3-|
-3--------------3---------|
--------------------------|

 Bb	C	Bb	C	Bb	C	Bb	C	Bb	C	Bb
-1------3-------1-------3-------1-------3-------1-------3-------1-------3---|
-3------5-------3-------5-------3-------5-------3-------5-------3-------5---|
-3------5-------3-------5-------3-------5-------3-------5-------3-------5---|
-3------5-------3-------5-------3-------5-------3-------5-------3-------5---|
-1------3-------1-------3-------1-------3-------1-------3-------1-------3---|
----------------------------------------------------------------------------|

 C	F	C	F
-3------1-------0-------1--|
-1------1-------1-------1--|
-0------2-------0-------2--|	x6
-2------3-------2-------3--|
-3--------------3----------|
---------------------------|

 Bb	C	Bb	C	Bb	C	Bb	C	C
-1------3-------1-------3-------1-------3-------1-------3-------3--|
-3------5-------3-------5-------3-------5-------3-------5-------5--|
-3------5-------3-------5-------3-------5-------3-------5-------5--|	x1
-3------5-------3-------5-------3-------5-------3-------5-------5--|
-1------3-------1-------3-------1-------3-------1-------3-------3--|
-------------------------------------------------------------------|

 Bb	C	Bb	C	Bb	C	Bb
-1------3-------1-------3-------1-------3-------1--|
-3------5-------3-------5-------3-------5-------3--|
-3------5-------3-------5-------3-------5-------3--|	x1
-3------5-------5-------3-------5-------3-------5--|
-1------3-------3-------1-------3-------1-------3--|
---------------------------------------------------|

 C	F	C	F
-3------1-------0-------1-|
-1------1-------1-------1-|
-0------2-------0-------2-|	x6
-2------3-------2-------3-|
-3--------------3---------|
--------------------------|

 Bb	C	Bb	C	Bb	C	Bb	C	C
-1------3-------1-------3-------1-------3-------1-------3-------3--|
-3------5-------3-------5-------3-------5-------3-------5-------5--|
-3------5-------3-------5-------3-------5-------3-------5-------5--|	x1
-3------5-------3-------5-------3-------5-------3-------5-------5--|
-1------3-------1-------3-------1-------3-------1-------3-------3--|
-------------------------------------------------------------------|

 Bb	C	Bb	C	Bb	C	Bb	C	C	Bb
-1------3-------1-------3-------1-------3-------1-------3-------3-------1--|
-3------5-------3-------5-------3-------5-------3-------5-------5-------3--|
-3------5-------3-------5-------3-------5-------3-------5-------5-------3--|
-3------5-------3-------5-------3-------5-------3-------5-------5-------3--|
-1------3-------1-------3-------1-------3-------1-------3-------3-------1--|
---------------------------------------------------------------------------|

 C	F	C	F
-3------1-------0-------1-|
-1------1-------1-------1-|
-0------2-------0-------2-|	x6
-2------3-------2-------3-|
-3--------------3---------|
--------------------------|

 C	F	C	F	F
-3------1-------0-------1-------1---13--|
-1------1-------1-------1-------1---13--|
-0------2-------0-------2-------2-------|	x6
-2------3-------2-------3-------3-------|
-3--------------3---------------3-------|
--------------------------------1-------|
Tap to rate this tab
 
# A B C D E F G H I J K L M N O P Q R S T U V W X Y Z