Song name
# A B C D E F G H I J K L M N O P Q R S T U V W X Y Z

Dispatch - Time Served tab

Time Served
By Dispatch
Album: Who Are We Living For?


i wrote the order at the bottom, so you know whats when.

Intro
e|----------------------------------------------------------------------------------------|
B|----------------------------------------------------------------------------------------|
G|----------------------------------------------------------------------------------------|
D|---5-p-0---------5-p-0--------7-5-----5-p-0---------5-p-0-------------------------------|
A|---------5-h-7---------5-h-7------7---------5-h-7---------5-h-7-p-5---------------------|
E|--------------------------------------------------------------------7-6-5-3-0-----------|

e|----------------------------------------------------------------------------------------|
B|----------------------------------------------------------------------------------------|
G|----------------------------------------------------------------------------------------|
D|---5-p-0---------5-p-0--------7-5-----5-p-0---------5-p-0-----------------------5-------|
A|---------5-h-7---------5-h-7------7---------5-h-7---------------------------5-7---5-----|
E|--------------------------------------------------------------------3-5-6-7-------------|

Chorus
e|---7-----5-----7-----5-----7-----5-----3-----5------------------------------------------|
B|---8-----7-----8-----7-----8-----7-----5-----7------------------------------------------|
G|---9-----7-----9-----7-----9-----7-----5-----7------------------------------------------|
D|---9-----7-----9-----7-----9-----7-----5-----7------------------------------------------|
A|---7-----5-----7-----5-----7-----5-----3-----5------------------------------------------|
E|----------------------------------------------------------------------------------------|

verse 1
e|----------------------------------------------------------------------------------------|
B|----------------------------------------------------------------------------------------|
G|----------------------------------------------------------------------------------------|
D|-------5-------5-s-4------7-p-5-4-h-5--------------9-------9-p-7-----7-p-5-4-h-5--------|
A|---7-7---7-7-7--------5-5-------------7---9-10-7-7---7-7-7-------5-5-------------7------|
E|----------------------------------------------------------------------------------------|

Lead Guitar Part
e|----------------------------------------------------------------------------------------|
B|----------------------------------------------------------------------------------------|
G|---7-s-9----------9---------------------------------------------------------------------|
D|----------------------------------------------------------------------------------------|
A|----------------------------------------------------------------------------------------|
E|------------------------0---------------------------------------------------------------|

verse 2 (Part A)
e|----------------------------------------------------------------------------------------|
B|----------------------------------------------------------------------------------------|
G|----------------------------------------------------------------------------------------|
D|-------5-------5-s-4------7-p-5-4-h-5---------9-------9-p-7-----7-p-5-4-h-5~~~----------|
A|---7-7---7-7-7--------5-5-------------7---7-7---7-7-7-------5-5-------------------------|
E|----------------------------------------------------------------------------------------|

(Part B)
e|----------------------------------------------------------------------------------------|
B|----------------------------------------------------------------------------------------|
G|----------------------------------------------------------------------------------------|
D|-------5-------5-s-4------7-p-5-4-h-5---------9~~~--------------7-p-5-4-h-5-------------|
A|---7-7---7-7-7--------5-5-------------7---7-7---------------5-5-------------7-----------|
E|----------------------------------------------------------------------------------------|

Break
e|---7---7---7---5-----7---7---3---5-------------------------------------------------------|
B|---8---8---8---7-----8---8---5---7-------------------------------------------------------|
G|---9---9---9---7-----9---9---5---7-------------------------------------------------------|
D|---9---9---9---7-----9---9---5---7-------------------------------------------------------|
A|---7---7---7---5-----7---7---3---5-------------------------------------------------------|
E|-----------------------------------------------------------------------------------------|


Order
Intro        X1
Chorus       X2
Verse 1      X2
Chorus       X2
Lead         X1
Verse 2A     X1
Verse 2B     X1
Break        X1
Chorus       X2
Intro        X4

Then it plays the first part of the intro to end it.
Tap to rate this tab
 
# A B C D E F G H I J K L M N O P Q R S T U V W X Y Z