Song name
# A B C D E F G H I J K L M N O P Q R S T U V W X Y Z

Dispatch - The General tab

DISPATCH: The General

INTRO

             Bb  F                    Cm  G                 D#                  
--------------------------------------3----3---------------------
-----------------------------------   4----4---------------8 8
-------------3-3-3--------------------5-5--5---------------8-8----
-------------3-3-3--3-3^5-3-----------5-5--5---------------6-6--
------3-1----1-1-3----------5-3-----3-- 3- -----1-3-1----------
1-3-1-----3------1--------------6-3----------1-3-------3----------

  Bb   F 
---6--1-1-x-1-1----------------------------------------------------
---6--1-1-x-1-1----------------------------------------------------
---7--2-2-x-2-2----------------------------------------------------
---8--3-3-x-3-3----------------------------------------------------
---------------------------------------------------------
--------------------------------------------------------


The song from there is the same chords with different strumming
patterns depending on the segment except for after "go now you are 
forgiven."


-----------------------1-1--1--------------------------
-----------------------1-1--1--------------------------
                       2 2  2
-3-4-5-5-5--5----------3-3--3-----------------------------
-3-4-5-5-5--5--1-3-1-------------------------------------------
-1-2-3-3-3--3--------3-2-1-------------------------------------
Tap to rate this tab
# A B C D E F G H I J K L M N O P Q R S T U V W X Y Z