Guitaretab - guitar tabs
Song name
# A B C D E F G H I J K L M N O P Q R S T U V W X Y Z

Dispatch - Two Coins tab

Title: Two Coins
Artist: Dispatch
Album: Bang Bang
Tabbed By: Andrew Connor (Drewsuredaddy@aol.com)
Tuning: Standard


Intro: played only once in the beginning and once near the end of the song (2:31)
E-------------------------------3----------------------
B---------------7---x-x--5-5-5--3----------------------
G----4h5p4------7---x-x--5-5-5--4--3p0-0h3-3p0---------
D-5-------------7---x-x--5-5-5--5--------------3p0-----
A----------7-5--5---x-x--3-3-3--5----------------------
E-------------------------------3----------------------

Body: played 99% of the song
E-------------------------------3--3-------------------
B---------------7---x-x--5-5-5--3--3-------------------
G----4h5p4------7---x-x--5-5-5--4--4-------------------
D-5-------------7---x-x--5-5-5--5--5-------------------
A----------7-5--5---x-x--3-3-3--5--5-------------------
E-------------------------------3--3-------------------

Bridge: played once the first time (0:55) and twice the second time (1:43)
E--5-5-5--7-7-7-7-7--3-3-3--3--5-5-5--5--3-3-3--3--3-3-
B--5-5-5--8-8-8-8-8--3-3-3--3--5-5-5--5--3-3-3--3--3-3-
G--7-7-7--9-9-9-9-9--4-4-4--4--7-7-7--7--5-5-5--5--5-5-
D--7-7-7--9-9-9-9-9--5-5-5--5--7-7-7--7--5-5-5--5--5-5-
A--5-5-5--7-7-7-7-7--5-5-5--5--5-5-5--5--3-3-3--3--3-3-
E--5-5-5--7-7-7-7-7--3-3-3--3--5-5-5--5--3-3-3--3--3-3-

End: just a lot of muting using basically the same chords

Lyrics:
I stick loneliness, your lips, and the two coins of your eyes into my pocket, yeah yeah
Well the train skates into Port Henry, late Sunday

Sometimes when Iím riding high, feeling fine, you know thereís something troubling you, yeah troubling my mind

So I reach into my pocket for some small change
I reach into my pocket for some small change

I want bones like iron, blood like mer-er-cury, so I can tell you when Iím rising and when Iím sinking in, Iím sinking in, Iím sinking in, Iím sinking in

I reach into my pocket for some small change
I reach into my pocket for some small change

Weíre gonna take it to the people, yeah
Weíre gonna take it to the people, yeah
Weíre gonna take it to the people, yeah
Weíre gonna take it to the people, yeah

Hey lets drink from the cup and share luck
But go ahead and laugh cuz it donít cost much
No no donít, donít cost much

I stick loneliness, your lips, and the two coins of your eyes, into my pocket, yeah
I stick loneliness, your lips, and the two coins of your eyes, into my pocket, yeah

[ Tab from: http://www.guitaretab.com/d/dispatch/22965.html ]
Related for Two Coins tab