Guitaretab - guitar tabs
Song name
# A B C D E F G H I J K L M N O P Q R S T U V W X Y Z

Dispatch - Out Loud tab

Dispatch/One Fell Swoop
Bang Bang
Out Loud
Tabbed by Owen Sakovics
www.tabsinonefellswoop.com

 A	F#m
--------------------|
--------------------|
--------------------|	x3
--------------------|
-7------4---4-------|
-5------2-0-2--0-2--|

 A	D	E
--------------------|
--------------------|
--------7-------9---|	x1
--------7-------9---|
-7------5-------7---|
-5------------------|

 A	F#m
--------------------|
--------------------|
--------------------|	x6
--------------------|
-7------4---4-------|
-5------2-0-2--0-2--|

 A	A	D	E
---------------------------|
---------------------------|
----------------7-------9--|	x1
----------------7-------9--|
-7------7-------5-------7--|
-5------5------------------|

 D	E	A	F#	D	E	F#m
-----------------------------------------------------------|
-----------------------------------------------------------|
-7------9-----------------------7-------9------------------|	x1
-7------9-----------------------7-------9------------------|
-5------7-------7-------4---4---5-------7-------4-4-2-4-4--|
----------------5-------2-0-2-------------------2-2-0h2-2--|

 D	E	A	F#	D	E
-------------------------------------------|
-------------------------------------------|
-7------9-----------------------7-------9--|	x1
-7------9-----------------------7-------9--|
-5------7-------7-------4---4---5-------7--|
----------------5-------2-0-2--------------|

 A	F#m
--------------------|
--------------------|
--------------------|	x3
--------------------|
-7------4---4----4--|
-5------2-0-2--0-2--|

 A	D	E
--------------------|
--------------------|
--------7-------9---|	x1
-7------7-------9---|
-7------5-------7---|
-5------------------|

 A	F#m
--------------------|
--------------------|
--------------------|	x6
-7------4---4-------|
-7------4---4-------|
-5------2-0-2--0-2--|

 A	A	D	E
---------------------------|
---------------------------|
----------------7-------9--|	x1
-7------7-------7-------9--|
-7------7-------5-------7--|
-5------5------------------|
[ Tab from: http://www.guitaretab.com/d/dispatch/23749.html ]
 D	E	A	F#	D	E	F#m
-----------------------------------------------------------|
-----------------------------------------------------------|
-7------9-----------------------7-------9------------------|	x1
-7------9-----------------------7-------9-------4-4---4-4--|
-5------7-------7-------4---4---5-------7-------4-4-2-4-4--|
----------------5-------2-0-2-------------------2-2-0h2-2--|

 D	E	A	F#	D	E
-------------------------------------------|
-------------------------------------------|
-7------9-----------------------7-------9--|	x1
-7------9-----------------------7-------9--|
-5------7-------7-------4---4---5-------7--|
----------------5-------2-0-2--------------|

 A	F#m
-5------2---2----2--|
-5------2---2----2--|
-6------2---2----2--|	x3
-7------4---4----4--|
-7------4---4----4--|
-5------2-0-2--0-2--|

 A	D	E
-5------5-------7---|
-5------7-------9---|
-6------7-------9---|	x1
-7------7-------9---|
-7------5-------7---|
-5------------------|

 A	F#m
-5------2---2-------|
-5------2---2-------|
-6------2---2-------|	x7
-7------4---4-------|
-7------4---4-------|
-5------2-0-2--0-2--|

 A	D	E
-5------5-------7---|
-5------7-------9---|
-6------7-------9---|	x1
-7------7-------9---|
-7------5-------7---|
-5------------------|

 D	E	A	F#	D	E	F#m
-5------7-------5-------2---2---5-------7-------2-2---2-2--|
-7------9-------5-------2---2---7-------9-------2-2---2-2--|
-7------9-------6-------2---2---7-------9-------2-2---2-2--|	x2
-7------9-------7-------4---4---7-------9-------4-4---4-4--|
-5------7-------7-------4---4---5-------7-------4-4-2-4-4--|
----------------5-------2-0-2-------------------2-2-0h2-2--|

 D	E	A	F#	D	E	F#m
-5------7-------5-------2---2---5-------7--|
-7------9-------5-------2---2---7-------9--|
-7------9-------6-------2---2---7-------9--|	x1
-7------9-------7-------4---4---7-------9--|
-5------7-------7-------4---4---5-------7--|
----------------5-------2-0-2--------------|

 A	F#m
-5------2---2-------|
-5------2---2-------|
-6------2---2-------|	x6
-7------4---4-------|
-7------4---4-------|
-5------2-0-2--0-2--|

 D	E	A
-5------7----------|
-7------9----------|
-7------9----------|	x1
-7------9----------|
-5------7----------|
----------------5--|
Related for Out Loud tab
Out Loud chords by Dispatch