Dispatch - Passerby tab

Tabbed By: Jon D
Dispatch ~ Gut The Van ~ Passerby
C. Lanzbom Solo

This solo isn't perfect but it is a general idea of how it goes.  I think C.
Lanzbom actually plays it higher
on the neck but I didn't feel like changing it.  I'm hoping this will be a good
starting point for anyone that wants to expand upon it.


0:33
E|----------------------------------------------------------|
B|--9----9b10r9---------------------------------------------|
G|---------------9--8--6--8--6----------6----------------6--|
D|------------------------------9--9-------9--6--9----9-----|
A|----------------------------------------------------------|
E|----------------------------------------------------------|

0:40
E|-------9--7-------------------------|
B|--7b8--------9--7--9--7--------7b8--|
G|-------------------------9--6-------|
D|------------------------------------|
A|------------------------------------|
E|------------------------------------|

0:49
E|--------9--7----------------------------------------------------------------|
B|--7--9--------9--7----9--7--------7-----------------------------------------|
G|----------------------------9--6-----6--9--6--------6-----------------------|
D|----------------------------------------------9--6-----6--9--6--------------|
A|----------------------------------------------------------------9--7--4-----|
E|----------------------------------------------------------------------------|

0:58
E|--9------9--9--9--9\7--------------------------------------------------------------------------|
B|-----------------------7-----7b8------7--------7b8r7----7--------7b8r7------9-9-9-9-9-9-9-9-7--|
G|--------------------------9--------------6--6--------------9--6--------------------------------|
D|-----------------------------------------------------------------------------------------------|
A|-----------------------------------------------------------------------------------------------|
E|-----------------------------------------------------------------------------------------------|

2:00
E|-----------------------------------------------------|
B|--9b10r9\7--------------7------7b8r7-----------------|
G|------------6--9--6--9----------------6--9--6--9--6--|
D|-----------------------------------------------------|
A|-----------------------------------------------------|
E|-----------------------------------------------------|

2:51
E|---------------------------7-------------------------------------------------|
B|-------7--7b8r7b8r7b8r7-------7b8r7--------7---------------------------------|
G|--4/6--------------------------------9--6-----6--9--6----4/6--------4--6--4--|
D|--------------------------------------------------------------4--6-----------|
A|-----------------------------------------------------------------------------|
E|-----------------------------------------------------------------------------|

3:03
E|----------------------------------------------------------------------------------------|
B|-------7/9--7----9/12--12b13r12----14--15--16--12--------12p9------12p9-----------------|
G|--4/6----------------------------------------------13----------11--------11--9\6--8--4--|
D|----------------------------------------------------------------------------------------|
A|----------------------------------------------------------------------------------------|
E|----------------------------------------------------------------------------------------|

3:12
E|----------------------------------------------------------------------------------------|
B|--12------------12------------12------------12------------------------------------------|
G|------11b12r11------11b12r11------11b12r11------11b12r11--8h9p8\6--8--6--------6-----6--|
D|-------------------------------------------------------------------------9--6-----9-----|
A|----------------------------------------------------------------------------------------|
E|----------------------------------------------------------------------------------------|

3:19  I just hammer on and off and sorta tremolo pick with delay.  Sounds ok.
E|---------------------------------------------------------------------------------------------|
B|-9-12-9-12-9-12-9-12-9-12-9-12-9-12-9-12-9-12-9-12-9-12-9-12-9-12-9-12-9-12-9-12-9-12--------|
G|--------------------------------------------------------------------------------------11b12--|
D|---------------------------------------------------------------------------------------------|
A|---------------------------------------------------------------------------------------------|
E|---------------------------------------------------------------------------------------------|

3:31
E|--------------------------------------------------------------------------------------------|
B|--12/14--14----14--14--14--14--16--16--16--17--17--17--19--19--19--19b20--19b20r19--17------|
G|----------------------------------------------------------------------------------------18--|
D|--------------------------------------------------------------------------------------------|
A|--------------------------------------------------------------------------------------------|
E|--------------------------------------------------------------------------------------------|

E|--------------------------------------------------------------------------------------|
B|--17--19------17--19------17--19------17--19------19b20r19--17--19------19b20--20b21--|
G|----------18----------18----------18----------18--------------------18----------------|
D|--------------------------------------------------------------------------------------|
A|--------------------------------------------------------------------------------------|
E|--------------------------------------------------------------------------------------|

E|--------------------------------------------------------------------------------------------|
B|--21--19--17--19b20--17------17-------------------------------------------------------------|
G|-------------------------20------18--16------16--------------------------------------14-----|
D|-----------------------------------------18------18--16--14--13--11--13--14--16--18---------|
A|--------------------------------------------------------------------------------------------|
E|--------------------------------------------------------------------------------------------|

E|------------------------------------------------|
B|------------------------------------------------|
G|--------------14------14------14------14--------|
D|--18--16--18------18------18------18------18----|
A|------------------------------------------------|
E|------------------------------------------------|

3:53
E|-------------------------------------------------|
B|-------------------------------------------------|
G|-------------------------------------------------|
D|--18--14--13h14p13--11---------------------------|
A|----------------------------9--7--6--7--6--2--4--|
E|-------------------------------------------------|

4:04			5:05
E|--xx9-9-----xx9-9------------------------------------------------------|
B|----------------------19b20--19b20r19--17------17--19------17--19------|
G|-------------------------------------------18----------18----------18--|
D|-----------------------------------------------------------------------|
A|-----------------------------------------------------------------------|
E|-----------------------------------------------------------------------|

E|---------------------------------------------------|
B|--19b20--19b20r19--17------17--19------17--19------|
G|-----------------------18----------18----------18--|
D|---------------------------------------------------|
A|---------------------------------------------------|
E|---------------------------------------------------|

You will need to improvise for the end.  Have Fun.  Hope this helps someone.
Tap to rate this tab
 
# A B C D E F G H I J K L M N O P Q R S T U V W X Y Z