Dispatch - Flying Horses tab

Intro: Enjoy

E-33---5---3---7-7-7-7---10---7---3-3-3-3---7---5-5-5-5---7---5---3-3-3-3--|
B-33---5---3---8-8-8-8---12---8---5-5-5-5---9---7-7-7-7---8---7---3-3-3-3--|
G--------------------------------------------------------------------------|
D--------------------------------------------------------------------------|
A--------------------------------------------------------------------------|
E--------------------------------------------------------------------------|


E-5---3---7-7-7-7---10---7---3-3-3-3---7---5-5-5-5---7---5---3-3-3-3-------|
B-5---3---8-8-8-8---12---8---5-5-5-5---9---7-7-7-7---8---7---3-3-3-3-------|
G--------------------------------------------------------------------------|
D--------------------------------------------------------------------------|
A--------------------------------------------------------------------------|
E--------------------------------------------------------------------------|
Tap to rate this tab
 
# A B C D E F G H I J K L M N O P Q R S T U V W X Y Z