Song name
# A B C D E F G H I J K L M N O P Q R S T U V W X Y Z

Dispatch - Open Up tab

----------------------------------------------------------------------------
			  OPEN UP (solo)- Dispatch
----------------------------------------------------------------------------
Tabbed by: Kevin Cuff
Email: cuffe517@hotmail.com

Tuning: Standard

e|-------------------------------------------------------------------------|
B|-------------------------------------------------------------------------|
G|-------------------------------------------------------------------------|
D|----------6--3---------6-------------------------------------------------|
A|-------4---------4--------3---------4--6----------4--1-------------------|
E|-------------------4---------4---6---------2--2---------2----------------|

e|------------------------------------------x-x-2--x-x-1-------------------|
B|------------------------------------------x-x-2--x-x-1-------------------|
G|------------------------------------------x-x-3--x-x-2-------------------|
D|----------6--3---------6------------------x-x-4--x-x-3-------------------|
A|-------4--------4---------3-------4--6----x-x-4--x-x-3-------------------|
E|------------------4----------4--6---------x-x-2--x-x-1-------------------|

e|-------------------------------------------------------------------------|
B|-------------------------------------------------------------------------|
G|-------------------------------------------------------------------------|
D|----------6--3--------6--------------------------------------------------|
A|-------4--------4--------3--------4--6--------4---1----------------------|
E|------------------4---------4--6--------2--2--------2--------------------|


That's it! This is a great song created by what I think to be one of the best bands on 
It's a really fun and easy solo that you can play along with if you have the CD or the 
If you have any questions or comments feel free to e-mail me. ROCK ON! And long live Dispatch.


| /  slide up
| \  slide down
| h  hammer-on
| p  pull-off
| ~  vibrato
| +  harmonic
| x  Mute note
============================================================================
Tap to rate this tab
# A B C D E F G H I J K L M N O P Q R S T U V W X Y Z