Song name
# A B C D E F G H I J K L M N O P Q R S T U V W X Y Z

Dispatch - Broken American tab

--| Broken American |--| Dispatch |--| Tab |--| Elias Landin |--



Tuning: Standard

|----2-2---------------3-3--------------0-0-------------------------|
|----3-3---------------3-3--------------0-0-------------------------|
|----4-4---------------0-0--------------1-1-------------------------|
|----4-4---------------0-0--------------2-2-------------------------|
|-2--2-2-----2--0------2-2--------------2-2---------------------5-0-|
|-------------------3--3-3-----3--2--0--0-0-----0--2--3--5--2-0-----|



 Bm               D                     A
And now i got to leave this place, oh, oh
                 F#m
Back to my sweet land, oh oh
 Bm              D                     A
Now i've got to leave this place, oh, oh
                            
Back to my sweet land



|----2-2---------------3-3--------------0-0-------------------------|
|----3-3---------------3-3--------------0-0-------------------------|
|----4-4---------------0-0--------------1-1-------------------------|
|----4-4---------------0-0--------------2-2-------------------------|
|-2--2-2-----2--0------2-2--------------2-2---------------------5-0-|
|-------------------3--3-3-----3--2--0--0-0-----0--2--3--5--2-0-----|



 Bm               D                     A
And now i got to leave this place, oh, oh
                 F#m
Back to my sweet land, oh oh
 Bm              D                     A
Now i've got to leave this place, oh, oh
                 Bm        
Back to my sweet land



 D        A           Bm       Bm - Bm - Bm - A 
Say bye bye, say bye bye
 G        A           D         D
Say bye bye, say bye bye



   Em        C
So I signed all
   Em            G
I lied about my age
      Em           C
And soon we're shipping off
 G               D
Soon we're on a plane

      Em        C
You kissed my cheek
         Em         G
Said my face was on fire
     Em    C
And I run away from the little one
 G            D
Trying not to cry



 D        A           Bm       Bm - Bm - Bm - A 
Say bye bye, say bye bye
 G        A           D         A
Say bye bye, say bye bye

D        A           Bm       Bm   
Say bye bye, say bye bye
 G        A           D         A
Say bye bye, say bye bye
Tap to rate this tab
 
# A B C D E F G H I J K L M N O P Q R S T U V W X Y Z