Song name
# A B C D E F G H I J K L M N O P Q R S T U V W X Y Z

Dispatch - Circles Around The Sun tab

Chords: f#m D A E

e-------------------------------------------------------------------------------------|
B-------------------------------------------------------------------------------------|
G-11-11-11-11-11-11-11-11-11-----------------------------11---------------------------|
D------------------------------11-12-12-12-12-12-12-12-12----14-14-14-14-14-14-14-14--|
A-------------------------------------------------------------------------------------|
E-------------------------------------------------------------------------------------|

e-------------------------------------------------------------------------------------|
B-------------------------------------------------------------------------------------|
G-------------------------------------------------------------------------------------|
D-11-9-9-9-9-9-9-11-9-----------------------------------------------------------------|
A----------------------12-------------------------------------------------------------|
E-------------------------------------------------------------------------------------|
Tap to rate this tab
# A B C D E F G H I J K L M N O P Q R S T U V W X Y Z