Song name
# A B C D E F G H I J K L M N O P Q R S T U V W X Y Z

Dispatch - Silent Steeples tab

-------------------------------------------------------------------------------
			     Silent Steeples - Dispatch
-------------------------------------------------------------------------------
Tabbed by: Cid Dynam (ezD)
Email: makomeltdownff7@hotmail.com
AIM: makomeltdownff7

Tuning:

| /  slide up
| \  slide down
| h  hammer-on
| p  pull-off
| ~  vibrato
| +  harmonic
| x  Mute note
| *  Tremolo Pick (Pick same note fast)

INTRO

e|---------------------------------------------------------------------------|
B|---------------------------------------------------------------------------|
G|---------------------------------------------------------------------------|
D|---------------------------------------------------------------------------|
A|---------1h2------1h2-2/4-4-5\--------1h2-----1h2-2/4-4/9-9-9~-------------|
E|-2h3----------2h3-----------------2h3-----2h3------------------------------|

CHORDS
Use all bar chords

  F#     G      Bm     D
e|-2-  e|-3-  e|-2-  e|-5-
B|-2-  B|-3-  B|-3-  B|-7-
G|-3-  G|-4-  G|-4-  G|-7-
D|-4-  D|-5-  D|-4-  D|-7-
A|-4-  A|-5-  A|-2-  A|-5-
E|-2-  E|-3-  E|-2-  E|-5-

Progression after intro
F# G F# F# G
F# G F# G F#

If you can just figure out the strumming pattern of that little progression
and get it down, its the whole way throughout the verse. There are also some 
mutes thrown around, its not hard just listen to the song.

VERSE

F#                      G            F#    F#      G
I heard a story about a boy, who was swept off the deck

F#            G                  F#   G   F#
the sweeping tide swept the sea over his neck

F#                   G        F#    F#      G
but it did not end there, the boy began to swim

F#               G          F#   G   F#
and dared to the sea that dared to invade him

CHORUS

The chorus progression is a little wierd, but it is
Bm F# G D
practice it a little and its not that hard

I'm not really gonna include more on those two parts cause they're all over
the place soooo...

SOLO :)

e|-2h3-2-3-3-3/5-5-5/7-7/9-9-9-9-10--10\-2-10\-2-10-10/12-12-10-9h10p9-7/9-9-|
B|---------------------------------------------------------------------------|
G|---------------------------------------------------------------------------|
D|---------------------------------------------------------------------------|
A|---------------------------------------------------------------------------|
E|---------------------------------------------------------------------------|


e|-9/10-10-9-7-10-9--10-9-7-9~-----------------------------------------------|
B|---------------------------------------------------------------------------|
G|---------------------------------------------------------------------------|
D|---------------------------------------------------------------------------|
A|---------------------------------------------------------------------------|
E|---------------------------------------------------------------------------|

e|---------------------------------------------------------------------------|
B|---------------------------------------------------------------------------|
G|------0-2-3-2-0---0-2-3-2-0---0-2-3-3-3/5-5-5-/10-10-10-10~----------------|
D|---4------------4-----------4----------------------------------------------|
A|---------------------------------------------------------------------------|
E|---------------------------------------------------------------------------|

Listen to song for length of trem picking
e|-------------------7/9-9\7-7/9-9\7-7/9-9\7-10~--12/14-14-12-10-9-----------|
B|---------------------------------------------------------------------------|
G|--11*-9*-7*-6*-7*----------------------------------------------------------|
D|---------------------------------------------------------------------------|
A|---------------------------------------------------------------------------|
E|---------------------------------------------------------------------------|

e|-9h10p9-12-10-9h10p9-7-5-9h10p9-12-10-9h10p9-7-5-5-3-2-2h3p2-0-------------|
B|---------------------------------------------------------------3-5b6-3-----|
G|---------------------------------------------------------------------------|
D|---------------------------------------------------------------------------|
A|---------------------------------------------------------------------------|
E|---------------------------------------------------------------------------|

e|----------------------5/7-7-5--5-7-10-12-12b13b12-10-12-12-10-7-5----------|
B|---0-3-0-3-0-/7-\5-5-------------------------------------------------------|
G|-2-------------------------------------------------------------------------|
D|---------------------------------------------------------------------------|
A|---------------------------------------------------------------------------|
E|---------------------------------------------------------------------------|

e|-10-10p9-9-9h10p9-10/12-10-9h10p9-7-5-3--/3-3-3-2-/7-7-7-6-6h7-/9-9-7------|
B|---------------------------------------------------------------------------|
G|---------------------------------------------------------------------------|
D|---------------------------------------------------------------------------|
A|---------------------------------------------------------------------------|
E|---------------------------------------------------------------------------|

e|-6-7-/9-9b-9b-9b-9b--------------------------------------------------------|
B|---------------------------------------------------------------------------|
G|---------------------------------------------------------------------------|
D|---------------------------------------------------------------------------|
A|---------------------------------------------------------------------------|
E|---------------------------------------------------------------------------|

===============================================================================
Tap to rate this tab
 
# A B C D E F G H I J K L M N O P Q R S T U V W X Y Z