Song name
# A B C D E F G H I J K L M N O P Q R S T U V W X Y Z

Dispatch - Water Stop tab

Water Stop
By: Dispatch
Silent Steeples

# - scrape the freted string with the edge the guitar pick

 Dm	Am	G	F
-1------0-------3-------1--|
-3------1-------3-------1--|
-2------2-------0-------2--|	x3
-0------2-------0-------3--|
--------0-------2-------3--|
----------------3-------1--|

 Dm	Am	G	F	F
-1------0-------3-------1-------1--|
-3------1-------3-------1-------1--|
-2------2-------0-------2-------2--|	x1
-0------2-------0-------3-------3--|
--------0-------2-------3-------3--|
----------------3-------1-------1--|

 Dm	Am	G	F
-1------0-------3-------1--|
-3------1-------3-------1--|
-2------2-------0-------2--|	x3
-0------2-------0-------3--|
--------0-------2-------3--|
----------------3-------1--|

 Dm	Am	G	F	F
-1------0-------3-------1-------1--|
-3------1-------3-------1-------1--|
-2------2-------0-------2-------2--|	x1
-0------2-------0-------3-------3--|
--------0-------2-------3-------3--|
----------------3-------1-------1--|

 Dm	Am	G	F
-1------0-------3-------1--|
-3------1-------3-------1--|
-2------2-------0-------2--|	x3
-0------2-------0-------3--|
--------0-------2-------3--|
----------------3-------1--|

 Dm	Am	G	F	F
-1------0-------3-------1-------1--|
-3------1-------3-------1-------1--|
-2------2-------0-------2-------2--|	x1
-0------2-------0-------3-------3--|
--------0-------2-------3-------3--|
----------------3-------1-------1--|

 Dm	Am	G	F
-1------0-------3-------1--|
-3------1-------3-------1--|
-2------2-------0-------2--|	x3
-0------2-------0-------3--|
--------0-------2-------3--|
----------------3-------1--|

 Dm	Am	G	F	F
-1------0-------3-------1-------1--|
-3------1-------3-------1-------1--|
-2------2-------0-------2-------2--|	x1
-0------2-------0-------3-------3--|
--------0-------2-------3-------3--|
----------------3-------1-------1--|

 C	G	FM7 Am	FM7 Am
-0------3-------0---0---0---0--|
-1------3-------1---1---1---1--|
-0------0-------2---2---2---2--|	x2
-2------0-------3---2---3---2--|
-3------2-----------0-------0--|
--------3----------------------|

 Dm	Am	G	F
-1------0-------3-------1--|
-3------1-------3-------1--|
-2------2-------0-------2--|	x2
-0------2-------0-------3--|
--------0-------2-------3--|
----------------3-------1--|

(LEAD I CHORDS)
 Dm	Am	G	F
-1------0-------3-------1--|
-3------1-------3-------1--|
-2------2-------0-------2--|	x4
-0------2-------0-------3--|
--------0-------2-------3--|
----------------3-------1--|

LEAD I:
--------------------------------------------------------------------------------------|
-10-13-10------10---------------------------------------------------------------------|
----------12-9----9h12p9-----12-9-----12-9--10p9-----------------10p9-----------------|
--------------------------12-------12------------12-10-10-10h12-------12-10-10--------|
-------------------------------------------------------------------------------10h12--|
--------------------------------------------------------------------------------------|

--------------7-7s8-8-8--8-8s10-10-10-10--7-7s8-8-8--8-8s12-12-12-12--|
----------------------------------------------------------------------|
-12-9-----------------------------------------------------------------|
-------12-10----------------------------------------------------------|
----------------------------------------------------------------------|
----------------------------------------------------------------------|

 Dm	Am	G	F
-1------0-------3-------1--|
-3------1-------3-------1--|
-2------2-------0-------2--|	x3
-0------2-------0-------3--|
--------0-------2-------3--|
----------------3-------1--|

 Dm	Am	G	F	F
-1------0-------3-------1-------1--|
-3------1-------3-------1-------1--|
-2------2-------0-------2-------2--|	x1
-0------2-------0-------3-------3--|
--------0-------2-------3-------3--|
----------------3-------1-------1--|

 Dm	Am	G	F
-1------0-------3-------1--|
-3------1-------3-------1--|
-2------2-------0-------2--|	x3
-0------2-------0-------3--|
--------0-------2-------3--|
----------------3-------1--|

 Dm	Am	G	F	F
-1------0-------3-------1-------1--|
-3------1-------3-------1-------1--|
-2------2-------0-------2-------2--|	x1
-0------2-------0-------3-------3--|
--------0-------2-------3-------3--|
----------------3-------1-------1--|

 C	G	FM7 Am	FM7 Am
-0------3-------0---0---0---0--|
-1------3-------1---1---1---1--|
-0------0-------2---2---2---2--|	x3
-2------0-------3---2---3---2--|
-3------2-----------0-------0--|
--------3----------------------|

 Dm	Am	G	F
-1------0-------3-------1--|
-3------1-------3-------1--|
-2------2-------0-------2--|	x2
-0------2-------0-------3--|
--------0-------2-------3--|
----------------3-------1--|

(LEAD II CHORDS)
 Dm	Am	G	F
-1------0-------3-------1--|
-3------1-------3-------1--|
-2------2-------0-------2--|	x8
-0------2-------0-------3--|
--------0-------2-------3--|
----------------3-------1--|

LEAD II:
-------------------------------------------------------------------------------------------------|
-------------------------------------------------------------------------------------------------|
-------------------------------------------------------------------------------------------------|
-5-5s7-7-7-7s9-9-9-9s10-10-10-10s12-12s14-14--5-5s7-7-7-7s9-9-9-9s10-10-10-10s12-12s14-14-14-14--|
-------------------------------------------------------------------------------------------------|
-------------------------------------------------------------------------------------------------|

--------------------------------------------------------------|
--------------------------------------------------------------|
--------------------------------------------------------------|
5-5s7-7-7-7s9-9-9-9s10-10-10-10s12-12s14-14-14-14-14--7#-10#--|
--------------------------------------------------------------|
--------------------------------------------------------------|

-s12-12-12--12--12--10-10--8--7-7s8----s12-12-12--12--12--10-10--8--7-7s8---|
-s13-13-13--13--13--12-12--10-8-8s10---s13-13-13--13--13--12-12--10-8-8s10--|
----------------------------------------------------------------------------|
----------------------------------------------------------------------------|
----------------------------------------------------------------------------|
----------------------------------------------------------------------------|

-s12-12-12--12-12-12--12-12-15-12--15-12--15-12--15-12--17--17-17--17--17*--12--|
-s13-13-13--13-13-13--13-13-13-13--13-13--13-13--13-13--13--13-13--13--13*------|
--------------------------------------------------------------------------------|
--------------------------------------------------------------------------------|
--------------------------------------------------------------------------------|
--------------------------------------------------------------------------------|
Tap to rate this tab
# A B C D E F G H I J K L M N O P Q R S T U V W X Y Z