Song name
# A B C D E F G H I J K L M N O P Q R S T U V W X Y Z

Dispatch - Craze tab

Dispatch/One Fell Swoop
Silent Steepes (Remastered)
Other Side
Tabbed by Owen Sakovics

**NOTE** - Since there is lead played throughout the song but no real "guitar solo," I out
"Lead Fills." In addition, since the lead fills take place over long sections of the and
various progressions, it is too confusing trying to place them in the tab in the correct
place with their respective so instead they are all transcribed at the end of the tablature.

() - Don't play last time

 D	Bm	Em	A
-2------2-------0-------0--|
-3------3-------0-------2--|
-2------4-------0-------2--|	x4
-0------4-------2-------2--|
--------2-------2-------0--|
----------------0----------|

 F#m	G	F#m	G
-2------3-------2-------3--|
-2------3-------2-------3--|
-2------4-------2-------4--|	x1
-4------5-------4-------5--|
-4------5-------4-------5--|
-2------3-------2-------3--|

 Bm	G	D   A
-2------3-------2---0--|
-3------3-------3---2--|
-4------4-------2---2--|	x4
-4------5-------0---2--|
-2------5-----------0--|
--------3--------------|

 D	Em	G	A
-2------0-------3-------0--|
-3------0-------3-------2--|
-2------0-------0-------2--|	x10
-0------2-------0-------2--|
--------2-------2-------0--|
--------0-------3----------|

 D	Bm	Em    (A)
-2------2-------0-----(0)--|
-3------3-------0-----(2)--|
-2------4-------0-----(2)--|	x8 (FAST)
-0------4-------2-----(2)--|
--------2-------2-----(0)--|
----------------0----------|

 F#m	G	F#m	G
-2------3-------2-------3--|
-2------3-------2-------3--|
-2------4-------2-------4--|	x1
-4------5-------4-------5--|
-4------5-------4-------5--|
-2------3-------2-------3--|

 Bm	G	D   A
-2------3-------2---0--|
-3------3-------3---2--|
-4------4-------2---2--|	x8
-4------5-------0---2--|
-2------5-----------0--|
--------3--------------|

 D	Bm	Em    (A)
-2------2-------0-----(0)--|
-3------3-------0-----(2)--|
-2------4-------0-----(2)--|	x8 (FAST)
-0------4-------2-----(2)--|
--------2-------2-----(0)--|
----------------0----------|

LEAD FILLS I:
-------------------------7-7--s10-10-10-9-10-10s12---10-9-10-9--------------12-10-9-10-9----------------------------|
--------------------7-10---------------------------------------10------------------------10-------------------------|
-----7-9-9s11-7---9-----------------------------------------------9--9s11-------------------9s11-11s12-12--12s11-9--|
-7h9----------------------------------------------------------------------------------------------------------------|
--------------------------------------------------------------------------------------------------------------------|
--------------------------------------------------------------------------------------------------------------------|

------------------------------10-12-12b14--12b14r12-10-----12-10----------------------------------------|
-----------------10s12-12--12--------------------------12--------12-10---7--8-7-------------------------|
---7-9-9s11-9-11----------------------------------------------------------------7-7h9-9--------7---7h9--|
-9---------------------------------------------------------------------------------------7h8h9---9------|
--------------------------------------------------------------------------------------------------------|
--------------------------------------------------------------------------------------------------------|

LEAD FILLS II:
--------------------------------------------------------------------------------------------------------------------------|
-s7---------------------------------5-----s7--------------------------s7------------------7-8-7----s7---------------------|
----9-7-9-7----------------9p7---7----6------9-7-9-7--------7-7-7--------9-7-9-7--------7-------9-----9-7-9-7--------7-9--|
------------9------7-7-7h9-----9---------------------9--7h9----------------------9--7h9-----------------------9--7h9------|
---------------7h9--------------------------------------------------------------------------------------------------------|
--------------------------------------------------------------------------------------------------------------------------|
Tap to rate this tab
# A B C D E F G H I J K L M N O P Q R S T U V W X Y Z