Song name
# A B C D E F G H I J K L M N O P Q R S T U V W X Y Z

Dispatch - Look Inside Yourself tab

-------------------------------------------------------------------------------
			     WHIRLWIND - Dispatch
-------------------------------------------------------------------------------
Tabbed by: fatiSar
Email: fatiSar@gmail.com

This is my first tab and I don't have the song with me right now so forgive me on
the timing but what's down should be correct. Email me with suggestions/corrections.

Tuning: Standard
Capo 2nd Fret

Repeat this part several times
e|-X--X-X---X-X---X-X--X---X-X-X-X-X-X---------|
B|-3--3-3---0-0---1-1--1---0-0-0-0-0-0---------|
G|-0--0-0---0-0---0-0--0---0-0-0-0-0-0---------|
D|-0--0-0---0-0---0-0--0---0-0-0-0-0-0---------|
A|-2--2-2---2-2---2-2--2---2-2-2-2-2-2---------|
E|-3--3-3---3-3---3-3--3---3-3-3-3-3-3---------|

e|-----------------5p-5p---5p--5p--6--5--------|
B|-5p--5p--5p--5p--4p-4p---4p--4p--4--4--------|
G|-4p--4p--4p--4p--5p-5p---5p--5p--5--5--------|
D|-5p--5p--5p--5p------------------------------|
A|---------------------------------------------|
E|---------------------------------------------| Back to beginning

Yeah I know there's more I just haven't gotten around to figuring it out. This
is pretty much the majority of the song though so it shouldn't matter too much.
Tap to rate this tab
 
# A B C D E F G H I J K L M N O P Q R S T U V W X Y Z