Song name
# A B C D E F G H I J K L M N O P Q R S T U V W X Y Z

Dispatch - Questioned Apocalypes tab

Help us improve GuitareTab! Take a short survey!
----------------------------------------------------------------------------
             Questioned Apocalypes (Gut The Van)- Dispatch
----------------------------------------------------------------------------
Tabbed by: Jon
Email:

Tuning: Standard

e|----------------1-1----3-3------------------------------------------------|
B|---------1-1----3-3----3-3----1-1----1-1----------------------------------|
G|--1-1----2-2----2-2------------------2-2----1-----------------------------|
D|--2-2----2-2------------------2-2----2-2----2-----------------------------|
A|--2-2------------------2-2----3-3-----------2-----------------------------|
E|-----------------------3-3------------------------------------------------|

That's pretty much the whole song, just with different strumming variations which you 
figure out easily from listening to the song. enjoy
Related for Questioned Apocalypes tab