Song name
# A B C D E F G H I J K L M N O P Q R S T U V W X Y Z

Dispatch - Remake Me tab

I love this song and havnt found one on here so im gonna post how i think it is

This is played through out the whole song the progressions is easy jusy listen to the song

 C  Dm   F    Am
-0--1----1----0-|
-1--3----1----1-|
-0--2----2----2-|
-2--0----3----2-|
-3-------3----0-|
---------1------|

Lead I is played after the first chrous
------------------------------------------------------------------------12--|
-------------------5-6s8--8-6-5-6---5-6-6s8-8--5-6-6s8-8--5-6-6s8-8---------|
-------------4-5-7---------------------------------------------------12-----|
---------5-7----------------------------------------------------------------|
---5-7-8--------------------------------------------------------------------|
-8--------------------------------------------------------------------------|

Lead II is played after the second chorus
----------------------------------------------------------------------------|
--------------------------------------------------8s10--10-10-10-10-8-10-10-|
----------------------------------5---5-7-7s9-7-9---------------------------|
---------2--2h3-3s5-5s7--5h7--5-7---7---------------------------------------|
-----3-5--------------------------------------------------------------------|
-3-5------------------------------------------------------------------------|

-12-12-12--12-12-12----10-10-8--8-------12-12-12---------10-10-8--8-----0-0-|
-13-13-13--13-13-13s12-12-12-10-10------13-13-13---13s12-12-12-10-10----8-8-|
----------------------------------------------------------------------------|
----------------------------------------------------------------------------|
----------------------------------------------------------------------------|
----------------------------------------------------------------------------|

this song is pretty easy the start to jam out after the lead II but that part is easy to get
Tap to rate this tab
# A B C D E F G H I J K L M N O P Q R S T U V W X Y Z