Song name
# A B C D E F G H I J K L M N O P Q R S T U V W X Y Z

Dispatch - Past The Falls tab

Dispatch/One Fell Swoop
Silent Steeples
Past the Falls
Tabbed by Owen Sakovics
www.tabsinonefellswoop.com

**The electric guitar part is at the bottom**

^ - harmonic

 D	   E	     E	       E	D	  E	    E	      E
-0-0-0-0-0-0-0-0-0-0-0-0-0-0-0-0--------0-0-0-0-0-0-0-0-0-0-7-0-0-0-0-0--|
-0-0-0-0-0-0-0-0-0-0-0-0-0-0-0-0--------0-0-0-0-0-0-0-0-0-0-7-0-0-0-0-0--|
-7-7-7-7-7s9-9-9-9-9-9-9-9-9-9-9--------7-7-7-7-7s9-9-9-9-9-9-9-9-9-9-9--|	x2
-7-7-7-7-7s9-9-9-9-9-9-9-9-9-9-9--------7-7-7-7-7s9-9-9-9-9-9-9-9-9-9-9--|
-5-5-5-5-5s7-7-7-7-7-7-7-7-7-7-7--------5-5-5-5-5s7-7-7-7-7-7-7-7-7-7-7--|
-0-0-0-0-0-0-0-0-0-0-0-0-0-0-0-0--------0-0-0-0-0-0-0-0-0-0-0-0-0-0-0-0--|

 D	   E	     E	       E	A
-0-0-0-0-0-0-0-0-0-0-0-0-0-0-0-0--------0--|
-0-0-0-0-0-0-0-0-0-0-0-0-0-0-0-0--------0--|
-7-7-7-7-7s9-9-9-9-9-9-9-9-9-9-9--------6--|	x1
-7-7-7-7-7s9-9-9-9-9-9-9-9-9-9-9--------7--|
-5-5-5-5-5s7-7-7-7-7-7-7-7-7-7-7--------7--|
-0-0-0-0-0-0-0-0-0-0-0-0-0-0-0-0--------0--|

 D	   E	     E	       E
-0-0-0-0-0-0-0-0-0-0-0-0-0-0-0-0--|
-0-0-0-0-0-0-0-0-0-0-0-0-0-0-0-0--|
-7-7-7-7-7s9-9-9-9-9-9-9-9-9-9-9--|	x2
-7-7-7-7-7s9-9-9-9-9-9-9-9-9-9-9--|
-5-5-5-5-5s7-7-7-7-7-7-7-7-7-7-7--|
-0-0-0-0-0-0-0-0-0-0-0-0-0-0-0-0--|

 D	   E	     E	       E	A	A	E
-0-0-0-0-0-0-0-0-0-0-0-0-0-0-0-0--------0-------0-------0--|
-0-0-0-0-0-0-0-0-0-0-0-0-0-0-0-0--------0-------0-------0--|
-7-7-7-7-7s9-9-9-9-9-9-9-9-9-9-9--------6-------6-------1--|	x1
-7-7-7-7-7s9-9-9-9-9-9-9-9-9-9-9--------7-------7-------2--|
-5-5-5-5-5s7-7-7-7-7-7-7-7-7-7-7--------7-------7-------2--|
-0-0-0-0-0-0-0-0-0-0-0-0-0-0-0-0--------0-------0-------0--|

 A	D	E	E
-0------2-------0-------0--|
-0------3-------0-------0--|
-6------2-------1-------1--|	x2
-7------0-------2-------2--|
-7--------------2-------2--|
----------------0-------0--|

 D	   E	     E	       E
-0-0-0-0-0-0-0-0-0-0-0-0-0-0-0-0--|
-0-0-0-0-0-0-0-0-0-0-0-0-0-0-0-0--|
-7-7-7-7-7s9-9-9-9-9-9-9-9-9-9-9--|	x2
-7-7-7-7-7s9-9-9-9-9-9-9-9-9-9-9--|
-5-5-5-5-5s7-7-7-7-7-7-7-7-7-7-7--|
-0-0-0-0-0-0-0-0-0-0-0-0-0-0-0-0--|

 D	   E	     E	       E	A
-0-0-0-0-0-0-0-0-0-0-0-0-0-0-0-0--------0--|
-0-0-0-0-0-0-0-0-0-0-0-0-0-0-0-0--------0--|
-7-7-7-7-7s9-9-9-9-9-9-9-9-9-9-9--------6--|	x1
-7-7-7-7-7s9-9-9-9-9-9-9-9-9-9-9--------7--|
-5-5-5-5-5s7-7-7-7-7-7-7-7-7-7-7--------7--|
-0-0-0-0-0-0-0-0-0-0-0-0-0-0-0-0--------0--|

 D	   E	     E	       E
-0-0-0-0-0-0-0-0-0-0-0-0-0-0-0-0--|
-0-0-0-0-0-0-0-0-0-0-0-0-0-0-0-0--|
-7-7-7-7-7s9-9-9-9-9-9-9-9-9-9-9--|	x2
-7-7-7-7-7s9-9-9-9-9-9-9-9-9-9-9--|
-5-5-5-5-5s7-7-7-7-7-7-7-7-7-7-7--|
-0-0-0-0-0-0-0-0-0-0-0-0-0-0-0-0--|

 D	   E	     E	       E	A	A	E
-0-0-0-0-0-0-0-0-0-0-0-0-0-0-0-0--------0-------0-------0--|
-0-0-0-0-0-0-0-0-0-0-0-0-0-0-0-0--------0-------0-------0--|
-7-7-7-7-7s9-9-9-9-9-9-9-9-9-9-9--------6-------6-------1--|	x1
-7-7-7-7-7s9-9-9-9-9-9-9-9-9-9-9--------7-------7-------2--|
-5-5-5-5-5s7-7-7-7-7-7-7-7-7-7-7--------7-------7-------2--|
-0-0-0-0-0-0-0-0-0-0-0-0-0-0-0-0--------0-------0-------0--|

 A	D	E	E
-0------2-------0-------0--|
-0------3-------0-------0--|
-6------2-------1-------1--|	x2
-7------0-------2-------2--|
-7--------------2-------2--|
----------------0-------0--|

 D	   E	     E	       E
-0-0-0-0-0-0-0-0-0-0-0-0-0-0-0-0--|
-0-0-0-0-0-0-0-0-0-0-0-0-0-0-0-0--|
-7-7-7-7-7s9-9-9-9-9-9-9-9-9-9-9--|	x4
-7-7-7-7-7s9-9-9-9-9-9-9-9-9-9-9--|
-5-5-5-5-5s7-7-7-7-7-7-7-7-7-7-7--|
-0-0-0-0-0-0-0-0-0-0-0-0-0-0-0-0--|

 D	   E	     E	       E
-0-0-0-0-0-0-0-0-0-0-0-0-0-0-0-0-0-0-0-0-0---|
-0-0-0-0-0-0-0-0-0-0-0-0-0-0-0-0-0-0-0-0-0---|
-7-7-7-7-7s9-9-9-9-9-9-9-9-9-9-9-9-9-9-9s11--|	x1
-7-7-7-7-7s9-9-9-9-9-9-9-9-9-9-9-9-9-9-9s11--|
-5-5-5-5-5s7-7-7-7-7-7-7-7-7-7-7-7-7-7-7s9---|
-0-0-0-0-0-0-0-0-0-0-0-0-0-0-0-0-0-0-0-0-0---|

(LEAD CHORDS PART A)
 D	   E	     E
-0-0-0-0-0-0-0-0-0-0-0-|
-0-0-0-0-0-0-0-0-0-0-0-|
-7-7-7-7-7s9-9-9-9-9-9-|	x3
-7-7-7-7-7s9-9-9-9-9-9-|
-5-5-5-5-5s7-7-7-7-7-7-|
-0-0-0-0-0-0-0-0-0-0-0-|

(LEAD CHORDS PART B)
 D	   E	     E	       E
-0-0-0-0-0-0-0-0-0-0-0-0-0-0-0-0--|
-0-0-0-0-0-0-0-0-0-0-0-0-0-0-0-0--|
-7-7-7-7-7s9-9-9-9-9-9-9-9-9-9-9--|	x1
-7-7-7-7-7s9-9-9-9-9-9-9-9-9-9-9--|
-5-5-5-5-5s7-7-7-7-7-7-7-7-7-7-7--|
-0-0-0-0-0-0-0-0-0-0-0-0-0-0-0-0--|

LEAD:
----------------------------------------------------|
----------------------------------------------------|
-^7--^12--^5--^7--^7--^12--^5--^7--^7--^12--^5--^7--|
-^7--^12--^5--^7--^7--^12--^5--^7--^7--^12--^5--^7--|
----------------------------------------------------|
----------------------------------------------------|

 A	Bsus4	A	Bsus4	A	Bsus4	Bsus4
-0------0-------0-------0-------0-------0-------0--|
-0------0-------0-------0-------0-------0-------0--|
-6------4-------6-------4-------6-------4-------4--|	x1
-7------4-------7-------4-------7-------4-------4--|
-7------2-------7-------2-------7-------2-------2--|
-0------0-------0-------0-------0-------0-------0--|

 D	   E	     E
-0-0-0-0-0-0-0-0-0-0-0-|
-0-0-0-0-0-0-0-0-0-0-0-|
-7-7-7-7-7s9-9-9-9-9-9-|	x4
-7-7-7-7-7s9-9-9-9-9-9-|
-5-5-5-5-5s7-7-7-7-7-7-|
-0-0-0-0-0-0-0-0-0-0-0-|

 D	   E	     E	       E
-0-0-0-0-0-0-0-0-0-0-0-0-0-0-0-0--|
-0-0-0-0-0-0-0-0-0-0-0-0-0-0-0-0--|
-7-7-7-7-7s9-9-9-9-9-9-9-9-9-9-9--|	x2
-7-7-7-7-7s9-9-9-9-9-9-9-9-9-9-9--|
-5-5-5-5-5s7-7-7-7-7-7-7-7-7-7-7--|
-0-0-0-0-0-0-0-0-0-0-0-0-0-0-0-0--|

 D	   E	     E	       E	A
-0-0-0-0-0-0-0-0-0-0-0-0-0-0-0-0--------0--|
-0-0-0-0-0-0-0-0-0-0-0-0-0-0-0-0--------0--|
-7-7-7-7-7s9-9-9-9-9-9-9-9-9-9-9--------6--|	x1
-7-7-7-7-7s9-9-9-9-9-9-9-9-9-9-9--------7--|
-5-5-5-5-5s7-7-7-7-7-7-7-7-7-7-7--------7--|
-0-0-0-0-0-0-0-0-0-0-0-0-0-0-0-0--------0--|

 D	   E	     E	       E
-0-0-0-0-0-0-0-0-0-0-0-0-0-0-0-0--|
-0-0-0-0-0-0-0-0-0-0-0-0-0-0-0-0--|
-7-7-7-7-7s9-9-9-9-9-9-9-9-9-9-9--|	x2
-7-7-7-7-7s9-9-9-9-9-9-9-9-9-9-9--|
-5-5-5-5-5s7-7-7-7-7-7-7-7-7-7-7--|
-0-0-0-0-0-0-0-0-0-0-0-0-0-0-0-0--|

 D	   E	     E	       E	A	A	E
-0-0-0-0-0-0-0-0-0-0-0-0-0-0-0-0--------0-------0-------0--|
-0-0-0-0-0-0-0-0-0-0-0-0-0-0-0-0--------0-------0-------0--|
-7-7-7-7-7s9-9-9-9-9-9-9-9-9-9-9--------6-------6-------1--|	x1
-7-7-7-7-7s9-9-9-9-9-9-9-9-9-9-9--------7-------7-------2--|
-5-5-5-5-5s7-7-7-7-7-7-7-7-7-7-7--------7-------7-------2--|
-0-0-0-0-0-0-0-0-0-0-0-0-0-0-0-0--------0-------0-------0--|

 A	D	E	E
-0------2-------0-------0--|
-0------3-------0-------0--|
-6------2-------1-------1--|	x4
-7------0-------2-------2--|
-7--------------2-------2--|
----------------0-------0--|

**ELECTRIC**
(2:36)
---------------------------------------------x-x--x-x--x-x--x-x--|
---------------------------------------------x-x--x-x--x-x--x-x--|
---------------------------------------------x-x--x-x--x-x--x-x--|	x1
-------5-5--------5s4--4--4-4-4--4--4--4--4--x-x--x-x--x-x--x-x--|
-5h6h7------5h6h7-7s5--5--5-5-5--5--5--5--5--x-x--x-x--x-x--x-x--|
---------------------------------------------x-x--x-x--x-x--x-x--|

---------------------------------------------x-x--x-x--x-x--x-x--|
---------------------------------------------x-x--x-x--x-x--x-x--|
---------------------------------------------x-x--x-x--x-x--x-x--|	x1
-------5-5--------5s4--4--4-4-4--4--4-4-4-4--x-x--x-x--x-x--x-x--|
-5h6h7------5h6h7-7s5--5--5-5-5--5--5-5-5-5--x-x--x-x--x-x--x-x--|
---------------------------------------------x-x--x-x--x-x--x-x--|
Tap to rate this tab
 
# A B C D E F G H I J K L M N O P Q R S T U V W X Y Z