Guitaretab - guitar tabs
Song name
# A B C D E F G H I J K L M N O P Q R S T U V W X Y Z

Dispatch - Silent Steepls tab

Dispatch/One Fell Swoop
Silent Steeples
Past the Falls
Tabbed by Owen Sakovics
www.tabsinonefellswoop.com

Born Normal


* - Tremelo pick note many times

     Em      Em      A       C
-----0-------0-------5------s8---|
-----0-------0-------5------s8---|
-----0-------0-------6------s9---|	x2
-0h2-2---0h2-2-------7------s10--|
-0h2-2---0h2-2-------7------s10--|
-0---0---0---0-------5------s8---|

     Em      Em      A       C	    A	    C       A	    C	    C
-----0-------0-------5------s8------5------s8-------5------s8-------8---|
-----0-------0-------5------s8------5------s8-------5------s8-------8---|
-----0-------0-------6------s9------6------s9-------6------s9-------9---| 	x1
-0h2-2---0h2-2-------7------s10-----7------s10------7------s10------10--|
-0h2-2---0h2-2-------7------s10-----7------s10------7------s10------10--|
-0---0---0---0-------5------s8------5------s8-------5------s8-------8---|

     Em	     Em	     A	     C
-----0-------0-------5------s8---|
-----0-------0-------5------s8---|
-----0-------0-------6------s9---|	x3
-0h2-2---0h2-2-------7------s10--|
-0h2-2---0h2-2-------7------s10--|
-0---0---0---0-------5------s8---|

     Em	     Em	     G	     D	     C
-----0-------0-------3-------2-------3--|
-----0-------0-------3-------3-------5--|
-----0-------0-------4-------2-------5--|	x1
-0h2-2---0h2-2-------5-------0-------5--|
-0h2-2---0h2-2-------5---------------3--|
-0---0---0---0-------3------------------|

**BASS**

 B	D	A	A	B	D
-2------2-------0-------0-------2-------2--|
-4------3-------2-------2-------4-------3--|
-4------2-------2-------2-------4-------2--|	x1
-4------0-------2-------2-------4-------0--|
-2--------------0-------0-------2----------|
-------------------------------------------|

 A	A	B	D	A	A	B	D	A	A
-0------0-------2-------2-------0-------0-------2-------2-------0-------0--|
-2------2-------4-------3-------2-------2-------4-------3-------2-------2--|
-2------2-------4-------2-------2-------2-------4-------2-------2-------2--|	x1
-2------2-------4-------0-------2-------2-------4-------0-------2-------2--|
-0------0-------2---------------0-------0-------2---------------0-------0--|
---------------------------------------------------------------------------|

     Em      Em      A       C
-----0-------0-------5------s8---|
-----0-------0-------5------s8---|
-----0-------0-------6------s9---|	x2
-0h2-2---0h2-2-------7------s10--|
-0h2-2---0h2-2-------7------s10--|
-0---0---0---0-------5------s8---|

     Em      Em      A       C	    A	    C       A	    C	    C
-----0-------0-------5------s8------5------s8-------5------s8-------8---|
-----0-------0-------5------s8------5------s8-------5------s8-------8---|
-----0-------0-------6------s9------6------s9-------6------s9-------9---| 	x1
-0h2-2---0h2-2-------7------s10-----7------s10------7------s10------10--|
-0h2-2---0h2-2-------7------s10-----7------s10------7------s10------10--|
-0---0---0---0-------5------s8------5------s8-------5------s8-------8---|


(LEAD CHORDS PART A)
     Em      Em	     A	     C
-----0-------0-------5------s8---|
-----0-------0-------5------s8---|
-----0-------0-------6------s9---|	x2
-0h2-2---0h2-2-------7------s10--|
-0h2-2---0h2-2-------7------s10--|
-0---0---0---0-------5------s8---|


(LEAD CHORDS PART B)
     Em      Em      A       C	    A	    C       A	    C	    C
-----0-------0-------5------s8------5------s8-------5------s8-------8---|
-----0-------0-------5------s8------5------s8-------5------s8-------8---|
-----0-------0-------6------s9------6------s9-------6------s9-------9---| 	x1
-0h2-2---0h2-2-------7------s10-----7------s10------7------s10------10--|
-0h2-2---0h2-2-------7------s10-----7------s10------7------s10------10--|
-0---0---0---0-------5------s8------5------s8-------5------s8-------8---|

LEAD:
-0-------------------------0------------------------15-14-----------15-14---15-15-15-x-x-x-x--|
-8b10--------12--12----12--8b10--14-12-----------12-15-15--------12-15-15---15-15-15-x-x-x-x--|
-------12----12--12h14-12--------14-12-12--12----12--------12----12---------------------------|
-------12h14---------------------------12--12h14-----------12h14------------------------------|
----------------------------------------------------------------------------------------------|
----------------------------------------------------------------------------------------------|

-15-15-15-x-x-x--15-15-15-x-x-x-x-15*--|
-15-15-15-x-x-x--15-15-15-x-x-x-x-15*--|
---------------------------------------|
---------------------------------------|
---------------------------------------|
---------------------------------------|

     Em	     Em	     A	     C
-----0-------0-------5------s8---|
-----0-------0-------5------s8---|
-----0-------0-------6------s9---|	x3
-0h2-2---0h2-2-------7------s10--|
-0h2-2---0h2-2-------7------s10--|
-0---0---0---0-------5------s8---|

     Em	     Em	     G	     D 	     C
-----0-------0-------3-------2-------3--|
-----0-------0-------3-------3-------5--|
-----0-------0-------4-------2-------5--|	x1
-0h2-2---0h2-2-------5-------0-------5--|
-0h2-2---0h2-2-------5---------------3--|
-0---0---0---0-------3------------------|

 C	C	B	D	A	A	B	D
-8------8-------2-------2-------0-------0-------2-------2--|
-8------8-------4-------3-------2-------2-------4-------3--|
-9------9-------4-------2-------2-------2-------4-------2--|	x1
-10-----10------4-------0-------2-------2-------4-------0--|
-10-----10------2---------------0-------0-------2----------|
-8------8--------------------------------------------------|

 A	A	B	D	A	A	B	D	A	A
-0------0-------2-------2-------0-------0-------2-------2-------0-------0--|
-2------2-------4-------3-------2-------2-------4-------3-------2-------2--|
-2------2-------4-------2-------2-------2-------4-------2-------2-------2--|	x1
-2------2-------4-------0-------2-------2-------4-------0-------2-------2--|
-0------0-------2---------------0-------0-------2---------------0-------0--|
---------------------------------------------------------------------------|

     Em      Em      A       C
-----0-------0-------5------s8---|
-----0-------0-------5------s8---|
-----0-------0-------6------s9---|	x2
-0h2-2---0h2-2-------7------s10--|
-0h2-2---0h2-2-------7------s10--|
-0---0---0---0-------5------s8---|

     Em      Em      A       C	    A	    C       A	    C	    C
-----0-------0-------5------s8------5------s8-------5------s8-------8---|
-----0-------0-------5------s8------5------s8-------5------s8-------8---|
-----0-------0-------6------s9------6------s9-------6------s9-------9---| 	x1
-0h2-2---0h2-2-------7------s10-----7------s10------7------s10------10--|
-0h2-2---0h2-2-------7------s10-----7------s10------7------s10------10--|
-0---0---0---0-------5------s8------5------s8-------5------s8-------8---|

 G	B	Em	C	G	B	Em	C	C  	D
-3------2-------0-------0-------3-------2-------0-------0-------0-------2--|
-3------4-------0-------1-------3-------4-------0-------1-------1-------3--|
-0------4-------0-------0-------0-------4-------0-------0-------0-------3--|	x1
-0------4-------2-------2-------0-------4-------2-------2-------2-------0--|
-2------2-------2-------3-------2-------2-------2-------3-------3----------|
-3--------------0---------------3---------------0--------------------------|

 A	A	B	D
-0------0-------2-------2--|
-2------2-------4-------3--|
-2------2-------4-------2--|	x1
-2------2-------4-------0--|
-0------0-------2----------|
---------------------------|

 A	A	B	D	A	A	B	D	A	A
-0------0-------2-------2-------0-------0-------2-------2-------0-------0--|
-2------2-------4-------3-------2-------2-------4-------3-------2-------2--|
-2------2-------4-------2-------2-------2-------4-------2-------2-------2--|	x1
-2------2-------4-------0-------2-------2-------4-------0-------2-------2--|
-0------0-------2---------------0-------0-------2---------------0-------0--|
---------------------------------------------------------------------------|

     Em      Em      A       C
-----0-------0-------5------s8---|
-----0-------0-------5------s8---|
-----0-------0-------6------s9---|	x2
-0h2-2---0h2-2-------7------s10--|
-0h2-2---0h2-2-------7------s10--|
-0---0---0---0-------5------s8---|

     Em      Em      A       C	    A	    C       A	    C	    C
-----0-------0-------5------s8------5------s8-------5------s8-------8---|
-----0-------0-------5------s8------5------s8-------5------s8-------8---|
-----0-------0-------6------s9------6------s9-------6------s9-------9---| 	x1
-0h2-2---0h2-2-------7------s10-----7------s10------7------s10------10--|
-0h2-2---0h2-2-------7------s10-----7------s10------7------s10------10--|
-0---0---0---0-------5------s8------5------s8-------5------s8-------8---|

 G	B	Em	C
-3------2-------0-------0--|
-3------4-------0-------1--|
-0------4-------0-------0--|	x5
-0------4-------2-------2--|
-2------2-------2-------3--|
-3--------------0----------|

 G	B	Em	C	C	Em
-3------2-------0-------0-------0-------0--|
-3------4-------0-------1-------1-------0--|
-0------4-------0-------0-------0-------0--|	x1
-0------4-------2-------2-------2-------2--|
-2------2-------2-------3-------3--2--0-2--|
-3--------------0------------------0--0-0--|

Bridges


**CAPO 3RD FRET**

 Dadd9			     C		   CMaj7         Am            Am            Am            Am
-----------------------------------------------------------------------0---------------------------0--|
-5-------5-----3-------3-----1-------1-----0-------0-----1-------1-------------1-----1-------1-----1--|
-----0-------0-----0-------0-----0-------0-----0-------0-----2-------2-----2-------2-----2-------2-2--|
---4-------4-----4-------4-----2-------2-----2-------2-----2-------2-----2---2---2-----2---2---2---2--|
-5-----5-------5-----5-------3-----3-------3-----3-------0-----0-------0-------------0-------------0--|
------------------------------------------------------------------------------------------------------|

 Dadd9	Dadd9	C	CMaj7	Am	Am	Am	Am
-0------0-------0-------0-------0-------0-------0-------0---|
-3------3-------1-------0-------1-------1-------1-------1---|
-0------0-------0-------0-------2-------2-----0h2-------2---|	x1
-4------4-------2-------2-------2-------2-------2-------2---|
-5------5-------3-------3-------0-------0-------0-------0---|
------------------------------------------------------------|

 Dadd9	Dadd9		CMaj7	Am	Am	Am	Am
-0------5-------3---0---0-------0-------0-------0-------0--------|
-3------3-------1---1---0-------1-------1-------1-------1--------|
-0------0-------0---0---0-------2-------2-----0h2-------2--------|    x1
-4------4-------2---2---2-------2-------2-------2-------2--------|
-5------5-------3---3---3-------0-------0-------0-------0--------|
-----------------------------------------------------------------|

 Em	C	Am	G	D	C	D
-0------0-------0-------3-------2-------0-------2--|
-0------1-------1-------3-------3-------1-------3--|
-0------0-------2-------0-------2-------0-------2--|	x1
-2------2-------2-------0-------0-------2-------0--|
-2------3-------0-------2---------------3----------|
-0----------------------3--------------------------|

(LEAD I CHORDS)
 Dadd9	Dadd9	C	CMaj7	Am	Am	Am	Am
-0------0-------0-------0-------0-------0-------0-------0---|
-3------3-------1-------0-------1-------1-------1-------1---|
-0------0-------0-------0-------2-------2-----0h2-------2---|	x1
-4------4-------2-------2-------2-------2-------2-------2---|
-5------5-------3-------3-------0-------0-------0-------0---|
------------------------------------------------------------|

LEAD I (NO CAPO):
-------------------------|
---3-4-4s6------3-3-3s1--|
-3------------3----------|
------------5------------|
-------------------------|
-------------------------|

 Dadd9	Dadd9	C	CMaj7	Am	Am	Am	Am
-0------0-------0-------0-------0-------0-------0-------0---|
-3------3-------1-------0-------1-------1-------1-------1---|
-0------0-------0-------0-------2-------2-----0h2-------2---|	x2
-4------4-------2-------2-------2-------2-------2-------2---|
-5------5-------3-------3-------0-------0-------0-------0---|
------------------------------------------------------------|

 Em	C	Am	G	D	C	D
-0------0-------0-------3-------2-------0-------2--|
-0------1-------1-------3-------3-------1-------3--|
-0------0-------2-------0-------2-------0-------2--|	x1
-2------2-------2-------0-------0-------2-------0--|
-2------3-------0-------2---------------3----------|
-0----------------------3--------------------------|

(LEAD II CHORDS A)
 Dadd9	Dadd9	C	CMaj7	Am	Am	Am	Am
-0------0-------0-------0-------0-------0-------0-------0---|
-3------3-------1-------0-------1-------1-------1-------1---|
-0------0-------0-------0-------2-------2-----0h2-------2---|	x2
-4------4-------2-------2-------2-------2-------2-------2---|
-5------5-------3-------3-------0-------0-------0-------0---|
------------------------------------------------------------|

(LEAD II CHORDS B)
 Em	C	Am	G	D	C	D
-0------0-------0-------3-------2-------0-------2--|
-0------1-------1-------3-------3-------1-------3--|
-0------0-------2-------0-------2-------0-------2--|	x1
-2------2-------2-------0-------0-------2-------0--|
-2------3-------0-------2---------------3----------|
-0----------------------3--------------------------|

LEAD II (NO CAPO):
-5--5s6-6s8-8s10--10s11-11-10-8-6-5--5h6p5-------------------------|
-------------------------------------------6--6s8---8s6--6s4--4s3--|
-------------------------------------------------------------------|
-------------------------------------------------------------------|
-------------------------------------------------------------------|
-------------------------------------------------------------------|

------------------------------------------------------------------------------------------|
---------------------------------------------------------------16--16s15-15-----11-11s13--|
-----------------------------------------------------------------------------12----12s14--|
----------------------------------------12-13-13s15--15-15s17-----------------------------|
-5h6-----5h6-6s8-8s10-10s12-12s13-13s15---------------------------------------------------|
-----6h8----------------------------------------------------------------------------------|

-----------------------6s8--8p6-8s10--10-8-----------------------|
--------------6s8--6h8---------------------11-10-----------------|
-3h5-5s7--5h7------------------------------------10--10s7-8-7-7--|
-----------------------------------------------------------------|
-----------------------------------------------------------------|
-----------------------------------------------------------------|

-----------------------------------------------------------------------------------------------------------|
-3h4-4s6-6s8-8-8-6-8-8s10--10s11-11-11--8--8s10-10-10--6-6s8-8-8--4-4s6-6-6-3-4-3--------------------------|
----------------------------------------------------------------------------------5-3-5b6r5p3---3h5-3h5-3--|
----------------------------------------------------------------------------------------------5------------|
-----------------------------------------------------------------------------------------------------------|
-----------------------------------------------------------------------------------------------------------|

 Em	C	Am	G	D	C	D
-0------0-------0-------3-------2-------0-------2--|
-0------1-------1-------3-------3-------1-------3--|
-0------0-------2-------0-------2-------0-------2--|	x1
-2------2-------2-------0-------0-------2-------0--|
-2------3-------0-------2---------------3----------|
-0----------------------3--------------------------|

 Em	C	Am	G	D	C	D	Dadd9	Dadd9   C   CM7	G
-0------0-------0-------3-------2-------0-------2-------0-------0-------0-0-0---3--|
-0------1-------1-------3-------3-------1-------3-------3-------3-------1-1-0---3--|
-0------0-------2-------0-------2-------0-------2-------0-------0-------0-0-0---0--|x1
-2------2-------2-------0-------0-------2-------0-------4-------4-------2-2-2---0--|
-2------3-------0-------2---------------3---------------5-------5-------3-3-3---2--|
-0----------------------3-------------------------------------------------------3--|

Craze


**The lead fills are at the bottom of the tablature**

 D	Bm	Em	A
-2------2-------0-------0--|
-3------3-------0-------2--|
-2------4-------0-------2--|	x4
-0------4-------2-------2--|
--------2-------2-------0--|
----------------0----------|

 F#m	G	F#m	G
-2------3-------2-------3--|
-2------3-------2-------3--|
-2------4-------2-------4--|	x1
-4------5-------4-------5--|
-4------5-------4-------5--|
-2------3-------2-------3--|

 Bm	G	D   A
-2------3-------2---0--|
-3------3-------3---2--|
-4------4-------2---2--|	x4
-4------5-------0---2--|
-2------5-----------0--|
--------3--------------|

 D	Em	G	A
-2------0-------3-------0--|
-3------0-------3-------2--|
-2------0-------0-------2--|	x10
-0------2-------0-------2--|
--------2-------2-------0--|
--------0-------3----------|

 D	Bm	Em	A
-2------2-------0-------0--|
-3------3-------0-------2--|
-2------4-------0-------2--|	x7
-0------4-------2-------2--|
--------2-------2-------0--|
----------------0----------|

 D	Bm	Em
-2------2-------0--|
-3------3-------0--|
-2------4-------0--|	x1
-0------4-------2--|
--------2-------2--|
----------------0--|

 F#m	G	F#m	G
-2------3-------2-------3--|
-2------3-------2-------3--|
-2------4-------2-------4--|	x1
-4------5-------4-------5--|
-4------5-------4-------5--|
-2------3-------2-------3--|

 Bm	G	D   A
-2------3-------2---0--|
-3------3-------3---2--|
-4------4-------2---2--|	x8
-4------5-------0---2--|
-2------5-----------0--|
--------3--------------|

 D	Bm	Em	A
-2------2-------0-------0--|
-3------3-------0-------2--|
-2------4-------0-------2--|	x7
-0------4-------2-------2--|
--------2-------2-------0--|
----------------0----------|

 D	Bm	Em
-2------2-------0--|
-3------3-------0--|
-2------4-------0--|	x1
-0------4-------2--|
--------2-------2--|
----------------0--|

LEAD FILLS:
------------------------7-7--s10-10-10-9-10-10s12--10-9-10-9-------------12-10-9-10-9----------------------------|
-------------------7-10--------------------------------------10-----------------------10-------------------------|
-----7-9-9s11-7--9----------------------------------------------9--9s11------------------9s11-11s12-12--12s11-9--|
-7h9-------------------------------------------------------------------------------------------------------------|
-----------------------------------------------------------------------------------------------------------------|
-----------------------------------------------------------------------------------------------------------------|

------------------------------10-12-12b14--12b14r12-10-----12-10---------------------------------------|
-----------------10s12-12--12--------------------------12--------12-10--7--8-7-------------------------|
---7-9-9s11-9-11---------------------------------------------------------------7-7h9-9--------7---7h9--|
-9--------------------------------------------------------------------------------------7h8h9---9------|
-------------------------------------------------------------------------------------------------------|
-------------------------------------------------------------------------------------------------------|

-------------------------------------------------------------------|
-s7---------------------------------5-----s7-----------------------|
----9-7-9-7----------------9p7---7----6------9-7-9-7--------7-7-7--|
------------9------7-7-7h9-----9---------------------9--7h9--------|
---------------7h9-------------------------------------------------|
-------------------------------------------------------------------|

-----------------------------------------------------|
-s7------------------7-8-7----s7---------------------|
----9-7-9-7--------7-------9-----9-7-9-7--------7-9--|
------------9--7h9-----------------------9--7h9------|
-----------------------------------------------------|
-----------------------------------------------------|


Elias


----------------------------------------------------------------------------------------------------|
----------------------------------------------------------------------------------------------------|
----------------------------------------------------------------------------------------------------|	x1
----------------------------------------------------------------------------------------------------|
----------------------------------------------------------------------------------------------------|
-0--0-1-1-1-1-0--0-1-1-1-0--0-1-1-1-1-0--0-1-1-1-0--0-1-1-1-1-0--0-1-1-1-0--0-1-1-1-1-0--0-1-1-1-0--|

----------------------------------------------------------------------------x-x--x-x--|
----------------------------------------------------------------------------x-x--x-x--|
----------------------------------------------------------------------------x-x--x-x--|	x1
----------------------------------------------------------------------------x-x--x-x--|
----------------------------------------------------------------------------x-x--x-x--|
-0-1-1-1-1-0--0-1-1-1-0--0-1-1-1-1-0--0-1-1-1-0--0-1-1-1-1-0--0-1-1-1-0--0--x-x--x-x--|

 A 	E	D   	F#m	E
-0------0-------2-------2-------0--|
-2------0-------3-------2-------0--|
-2------1-------2-------2-------1--|	x4
-2------2-------0-------4-------2--|
-0------2---------------4-------2--|
--------0---------------2-------0--|

 A	E	F#m E   D
-0------0-------2---0---2--|
-2------0-------2---0---3--|
-2------1-------2---1---2--|	x3
-2------2-------4---2---0--|
-0------2-------4---2------|
--------0-------2---0------|

 A	E	F#m E   D	A
-0------0-------2---0---2-------0--|
-2------0-------2---0---3-------2--|
-2------1-------2---1---2-------2--|	x1
-2------2-------4---2---0-------2--|
-0------2-------4---2-----------0--|
--------0-------2---0--------------|

 A	E	F#m 	E   D
-0------0-------2-------0---2--|
-2------0-------2-------0---3--|
-2------1-------2-------1---2--|	x2
-2------2-------4-------2---0--|
-0------2-------4-------2------|
--------0-------2-------0------|

 A 	E	D   	F#m	E
-0------0-------2-------2-------0--|
-2------0-------3-------2-------0--|
-2------1-------2-------2-------1--|	x2
-2------2-------0-------4-------2--|
-0------2---------------4-------2--|
--------0---------------2-------0--|

 A	E	F#m E   D
-0------0-------2---0---2--|
-2------0-------2---0---3--|
-2------1-------2---1---2--|	x4
-2------2-------4---2---0--|
-0------2-------4---2------|
--------0-------2---0------|

 A	E	F# 	E   D
-0------0-------2-------0---2---x-x-x-x-x-x-x-x-x-x-x-x-x-x-x--|
-2------0-------2-------0---3---x-x-x-x-x-x-x-x-x-x-x-x-x-x-x--|
-2------1-------2-------1---2---x-x-x-x-x-x-x-x-x-x-x-x-x-x-x--|	x1
-2------2-------4-------2---0---x-x-x-x-x-x-x-x-x-x-x-x-x-x-x--|
-0------2-------4-------2-------x-x-x-x-x-x-x-x-x-x-x-x-x-x-x--|
--------0-------2-------0-------x-x-x-x-x-x-x-x-x-x-x-x-x-x-x--|

			  	A	E	F#m	E
-x-x-x-x-x-x-x-x-x-x-x-x-x-x-x--0-------0-------2-------0--|
-x-x-x-x-x-x-x-x-x-x-x-x-x-x-x--2-------0-------2-------0--|
-x-x-x-x-x-x-x-x-x-x-x-x-x-x-x--2-------1-------2-------1--|	x1
-x-x-x-x-x-x-x-x-x-x-x-x-x-x-x--2-------2-------4-------2--|
-x-x-x-x-x-x-x-x-x-x-x-x-x-x-x--0-------2-------4-------2--|
-x-x-x-x-x-x-x-x-x-x-x-x-x-x-x----------0-------2-------0--|

(LEAD CHORDS)
 D	A	D	E
-2------0-------2-------0--|
-3------2-------3-------0--|
-2------2-------2-------1--|	x6
-0------2-------0-------2--|
--------0---------------2--|
------------------------0--|

LEAD:
(GUITAR I)
----------------------------------------|
----------------------------------------|
-------7--7s9-6---------7--7s9----------|	x6
---6-7--------------6-7--------6-7-6----|
-9----------------9------------------7--|
----------------------------------------|

LEAD:
(GUITAR II)
----------------------------------------|
----------------------------------------|
----------------------------------------|	x6
-----4-7--7s9---------4-7--7s9----------|
-5-7----------7---5-7----------7--------|
----------------------------------------|

 A	E	F#m E   D
-0------0-------2---0---2--|
-2------0-------2---0---3--|
-2------1-------2---1---2--|	x4
-2------2-------4---2---0--|
-0------2-------4---2------|
--------0-------2---0------|

 A	E	F#m 	E   D
-0------0-------2-------0---2--|
-2------0-------2-------0---3--|
-2------1-------2-------1---2--|	x7
-2------2-------4-------2---0--|
-0------2-------4-------2------|
--------0-------2-------0------|

 A	E	F#m 	E   D	A
-0------0-------2-------0---2---0--|
-2------0-------2-------0---3---2--|
-2------1-------2-------1---2---2--|	x1
-2------2-------4-------2---0---2--|
-0------2-------4-------2-------0--|
--------0-------2-------0----------|

Flying Horses


-3-3--5-3-7-7-7--10-7-3-3-3--7-10-5-5-5--7-5--|
-3-3--7-3-8-8-8--12-8-3-3-3--8-12-7-7-7--8-7--|
----------------------------------------------|	x2
----------------------------------------------|
----------------------------------------------|
----------------------------------------------|

 G	D	Em	C	Em	D
-3------2-------0-------0-------0-------2--|
-3------3-------0-------1-------0-------3--|
-0------2-------0-------0-------0-------2--|	x2
-0------0-------2-------2-------2-------0--|
-2--------------2-------3-------2----------|
-3--------------0---------------0----------|

 G	D	Em	Em
-3------2-------0-------0--|
-3------3-------0-------0--|
-0------2-------0-------0--|	x8
-0------0-------2-------2--|
-2--------------2-------2--|
-3--------------0-------0--|

 G	D	Em	C	Em	D
-3------2-------0-------0-------0-------2--|
-3------3-------0-------1-------0-------3--|
-0------2-------0-------0-------0-------2--|	x4
-0------0-------2-------2-------2-------0--|
-2--------------2-------3-------2----------|
-3--------------0---------------0----------|

 G	D	Em	Em
-3------2-------0-------0--|
-3------3-------0-------0--|
-0------2-------0-------0--|	x4
-0------0-------2-------2--|
-2--------------2-------2--|
-3--------------0-------0--|

 G	D	Em	Em	G	D	Em	C
-3------2-------0-------0-------3-------2-------0-------0--|
-3------3-------0-------0-------3-------3-------0-------1--|
-0------2-------0-------0-------0-------2-------0-------0--|	x1
-0------0-------2-------2-------0-------0-------2-------2--|
-2--------------2-------2-------2---------------2-------3--|
-3--------------0-------0-------3---------------0----------|

 G	D	Em	Em	G	D	Em	C	D
-3------2-------0-------0-------3-------2-------0-------0-------2--|
-3------3-------0-------0-------3-------3-------0-------1-------3--|
-0------2-------0-------0-------0-------2-------0-------0-------2--|	x1
-0------0-------2-------2-------0-------0-------2-------2-------0--|
-2--------------2-------2-------2---------------2-------3----------|
-3--------------0-------0-------3---------------0------------------|

 G	D	Em	Em
-3------2-------0-------0--|
-3------3-------0-------0--|
-0------2-------0-------0--|	x4
-0------0-------2-------2--|
-2--------------2-------2--|
-3--------------0-------0--|

 G	D	Em	C	Em	D
-3------2-------0-------0-------0-------2--|
-3------3-------0-------1-------0-------3--|
-0------2-------0-------0-------0-------2--|	x8
-0------0-------2-------2-------2-------0--|
-2--------------2-------3-------2----------|
-3--------------0---------------0----------|

(OUTRO)
 G	D	Em	Em	G	D	Em	C
-3------2-------0-------0-------3-------2-------0-------0--|
-3------3-------0-------0-------3-------3-------0-------1--|
-0------2-------0-------0-------0-------2-------0-------0--|
-0------0-------2-------2-------0-------0-------2-------2--|
-2--------------2-------2-------2---------------2-------3--|
-3--------------0-------0-------3---------------0----------|


Hey Hey

 E	B	C#  B   A	E	B	C#	G#
-0------2-------4---2---0-------0-------2-------4-------4--|
-0------4-------5---4---2-------0-------4-------5-------4--|
-1------4-------6---4---2-------1-------4-------6-------5--|	x1
-2------4-------6---4---2-------2-------4-------6-------6--|
-2------2-------4---2---0-------2-------2-------4-------6--|
-0------------------------------0-----------------------4--|

 E	B	C#m	A
-0------2-------4-------0--|
-0------4-------5-------2--|
-1------4-------6-------2--|	x4
-2------4-------6-------2--|
-2------2-------4-------0--|
-0-------------------------|

 A	C#m	E	B	A	C#m	E	B
-0------4-------0-------2-------0-------4-------0-------2--|
-2------5-------0-------4-------2-------5-------0-------4--|
-2------6-------1-------4-------2-------6-------1-------4--|	x1
-2------6-------2-------4-------2-------6-------2-------4--|
-0------4-------2-------2-------0-------4-------2-------2--|
----------------0-------------------------------0----------|

 E	B	C#m	A
-0------2-------4-------0--|
-0------4-------5-------2--|
-1------4-------6-------2--|	x2
-2------4-------6-------2--|
-2------2-------4-------0--|
-0-------------------------|

 E	B	C#m B	C#  B   C#  A
-0------2-------4---2---4---2---4---0--|
-0------4-------5---4---5---4---5---2--|
-1------4-------6---4---6---4---6---2--|	x2
-2------4-------6---4---6---4---6---2--|
-2------2-------4---2---4---2---4---0--|
-0-------------------------------------|

 A	C#m	E	B	A	C#m	E	B
-0------4-------0-------2-------0-------4-------0-------2--|
-2------5-------0-------4-------2-------5-------0-------4--|
-2------6-------1-------4-------2-------6-------1-------4--|	x1
-2------6-------2-------4-------2-------6-------2-------4--|
-0------4-------2-------2-------0-------4-------2-------2--|
----------------0-------------------------------0----------|

 E	B	C#  B	A	E	B	C#
-0------2-------4---2---0-------0-------2-------4--|
-0------4-------5---4---2-------0-------4-------5--|
-1------4-------6---4---2-------1-------4-------6--|	x1
-2------4-------6---4---2-------2-------4-------6--|
-2------2-------4---2---0-------2-------2-------4--|
-0------------------------------0------------------|

 E	B	C#  B	A	E	B	C#	G#
-0------2-------4---2---0-------0-------2-------4-------4--|
-0------4-------5---4---2-------0-------4-------5-------4--|
-1------4-------6---4---2-------1-------4-------6-------5--|	x1
-2------4-------6---4---2-------2-------4-------6-------6--|
-2------2-------4---2---0-------2-------2-------4-------6--|
-0------------------------------0-----------------------4--|

 E	B	C#m B	C#  B   C#  A
-0------2-------4---2---4---2---4---0--|
-0------4-------5---4---5---4---5---2--|
-1------4-------6---4---6---4---6---2--|	x4
-2------4-------6---4---6---4---6---2--|
-2------2-------4---2---4---2---4---0--|
-0-------------------------------------|

 E	B	C#m	A
-0------2-------4-------0---|
-0------4-------5-------2---|
-1------4-------6-------2---|	x7
-2------4-------6-------2---|
-2------2-------4-------0---|
-0--------------------------|


Mayday


 Bb 	C 	Dm
-1------0-------1--|
-3------1-------3--|
-3------0-------2--|	x6
-3------2-------0--|
-1------3----------|
-------------------|

 Bb 	C 	Dm
-1------0-------1----------0h1--------|
-3------1-------3------3-------3------|
-3------0-------2--0h2---2-------2----|	x1
-3------2-------0------------------0--|
-1------3-----------------------------|
--------------------------------------|

 Bb 	C 	Dm
-1------0-------1--|
-3------1-------3--|
-3------0-------2--|	x4
-3------2-------0--|
-1------3----------|
-------------------|

 F	C 	Dm 	Bb	F	C	Dm	Bb	C
-1------0-------1-------1-------1-------0-------1-------1-------0--|
-1------1-------3-------3-------1-------1-------3-------3-------1--|
-2------0-------2-------3-------2-------0-------2-------3-------0--|	x1
-3------2-------0-------3-------3-------2-------0-------3-------2--|
-3------3---------------1-------3-------3---------------1-------3--|
-1------------------------------1----------------------------------|

 Bb 	C 	Dm
-1------0-------1--|
-3------1-------3--|
-3------0-------2--|	x5
-3------2-------0--|
-1------3----------|
-------------------|

 Bb 	C 	Dm
-1------0-------1----------0h1--------|
-3------1-------3------3-------3------|
-3------0-------2--0h2---2-------2----|	x1
-3------2-------0------------------0--|
-1------3-----------------------------|
--------------------------------------|

 Bb 	C 	Dm
-1------0-------1--|
-3------1-------3--|
-3------0-------2--|	x8
-3------2-------0--|
-1------3----------|
-------------------|

 F	C 	Dm 	Bb	F	C	Dm	Bb	C
-1------0-------1-------1-------1-------0-------1-------1-------0--|
-1------1-------3-------3-------1-------1-------3-------3-------1--|
-2------0-------2-------3-------2-------0-------2-------3-------0--|	x1
-3------2-------0-------3-------3-------2-------0-------3-------2--|
-3------3---------------1-------3-------3---------------1-------3--|
-1------------------------------1----------------------------------|

 Bb 	C 	Dm
-1------0-------1--|
-3------1-------3--|
-3------0-------2--|	x2
-3------2-------0--|
-1------3----------|
-------------------|

(LEAD CHORDS)
 Bb 	C 	Dm
-1------0-------1--|
-3------1-------3--|
-3------0-------2--|	x14
-3------2-------0--|
-1------3----------|
-------------------|

LEAD:
--------------------------------------------------------------------------------------------|
-13p10---------------------------------------------------10-------13-13s15--13h15-15b17r15--|
-------12p10-12b14r12--12p10-----------------10----10h12----12s14---------------------------|
-----------------------------12p10-10--10h12----12------------------------------------------|
--------------------------------------------------------------------------------------------|
--------------------------------------------------------------------------------------------|

-------------------------------11------------------------------------|
-15-13-15--15-13-15--15-13-15-----15s--------------------------------|
---------------------------------------------------------------------|
------------------------------------------------------3-2-3-5-3-2-0--|
----------------------------------------------3---3-5----------------|
----------------------------------------3h4h5---5--------------------|

---------------------------------------------------------------------|
---------------------------------------------------------------------|
---------------------------------------------------------------------|
------------------------------------7-----7-10-7-10-10s12--12b13r12--|
-------3---3-5-5s7-5-7-7s8-7-8-8s10----10----------------------------|
-3h4h5---5-----------------------------------------------------------|

-10-----12-----13-----17-----10-----12-----13-----17----------------|
-13b15--15b17--16b18--20b22--13b15--15b17--16b18--20b22-r20--20-18--|
--------------------------------------------------------------------|
--------------------------------------------------------------------|
--------------------------------------------------------------------|
--------------------------------------------------------------------|

-----------13-------------13----------------------------|
-15-13-15-----15--15-13-15----15-15b17r15--15-13-15-----|
----------------------------------------------------14--|
--------------------------------------------------------|
--------------------------------------------------------|
--------------------------------------------------------|

--------------------------------------------------------------------|
-15-13-15---15-13-15---15-13-15-----15-13-15---15-13-15---15-13-15--|
--------------------------------------------------------------------|
--------------------------------------------------------------------|
--------------------------------------------------------------------|
--------------------------------------------------------------------|

Other Side


 G
-3---3--3---3--3-3--|
-3---3--3---3--3-3--|
-0h2-2--0h2-2--2-2--|	x4
-0---0--0---0--0-0--|
-0---0--2---0--0-0--|
-3---3--3---3--3-3--|

 G	G	Em7	Em7
-3------3-------3-------3--|
-3------3-------3-------3--|
-0------0-------0-------0--|	x1
-0------0-------2-------2--|
-2------2-------2-------2--|
-3------3-------0-------0--|

 C		Am	Am	C		Am	Am	Am	Am
-0------0-------0-------0-------0-------0-------0-------0-------0-------0--|
-1------1-------1-------1-------1-------1-------1-------1-------1-------1--|
-0------0-------2-------2-------0-------0-------2-------2-------2-------2--|	x1
-2------0-------2-------2-------2-------0-------2-------2-------2-------2--|
-3------2-------0-------0-------3-------2-------0-------0-------0-------0--|
---------------------------------------------------------------------------|

 D	D6	Cadd9	D	D6	Cadd9	Cadd9	Cadd9
-2------2-------3-------2-------2-------0-------0-------0----|
-3------3-------3-------3-------3-------3-------3-------3----|
-2------0-------0-------2-------0-------0-------0-------0----|	x1
-0------0-------2-------0-------0-------2-------2-------2----|
--------2-------3---------------2-------3-------3-------3----|
-------------------------------------------------------------|

 G	G	G	G	G	G	Em7	Em7
-3------3-------3-------3-------3-------3-------3-------3--|
-3------3-------3-------3-------3-------3-------3-------3--|
-0------0-------0-------0-------0-------0-------0-------0--|	x1
-0------0-------0-------0-------0-------0-------2-------2--|
-2------2-------2-------2-------2-------2-------2-------2--|
-3------3-------3-------3-------3-------3-------0-------0--|

 C		Am	Am	C		Am	Am	Am	Am
-0------0-------0-------0-------0-------0-------0-------0-------0-------0--|
-1------1-------1-------1-------1-------1-------1-------1-------1-------1--|
-0------0-------2-------2-------0-------0-------2-------2-------2-------2--|	x1
-2------0-------2-------2-------2-------0-------2-------2-------2-------2--|
-3------2-------0-------0-------3-------2-------0-------0-------0-------0--|
---------------------------------------------------------------------------|

 D	D6	Cadd9	D	D6	Cadd9	Cadd9	Cadd9
-2------2-------0-------2-------2-------0-------0-------0----|
-3------3-------3-------3-------3-------3-------3-------3----|
-2------0-------0-------2-------0-------0-------0-------0----|	x1
-0------0-------2-------0-------0-------2-------2-------2----|
--------2-------3---------------2-------3-------3-------3----|
-------------------------------------------------------------|

 G
-3---3--3---3--3-3--|
-3---3--3---3--3-3--|
-0h2-2--0h2-2--2-2--|	x3
-0---0--0---0--0-0--|
-0---0--2---0--0-0--|
-3---3--3---3--3-3--|

(LEAD I CHORDS)
 C	Em	C	Em	C	Em
-0------0-------0-------0-------0-------0--|
-1------0-------1-------0-------1-------0--|
-0------0-------0-------0-------0-------0--|	x1
-2------2-------2-------2-------2-------2--|
-3------2-------3-------2-------3-------2--|
--------0---------------0---------------0--|

LEAD I:
------------------|
-3-1--7-5--3-1-0--|
-4-2--7-5--4-2-0--|
------------------|
------------------|
------------------|
[ Tab from: http://www.guitaretab.com/d/dispatch/78399.html ]
 C	Em	C	Em	C	Em
-0------0-------0-------0-------0-------0--|
-1------0-------1-------0-------1-------0--|
-0------0-------0-------0-------0-------0--|	x1
-2------2-------2-------2-------2-------2--|
-3------2-------3-------2-------3-------2--|
--------0---------------0---------------0--|

 G
-3---3--3---3--3-3--|
-3---3--3---3--3-3--|
-0h2-2--0h2-2--2-2--|	x4
-0---0--0---0--0-0--|
-0---0--2---0--0-0--|
-3---3--3---3--3-3--|

 G	G	Em7	Em7
-3------3-------3-------3--|
-3------3-------3-------3--|
-0------0-------0-------0--|	x1
-0------0-------2-------2--|
-2------2-------2-------2--|
-3------3-------0-------0--|

 C		Am	Am	C		Am	Am	Am	Am
-0------0-------0-------0-------0-------0-------0-------0-------0-------0--|
-1------1-------1-------1-------1-------1-------1-------1-------1-------1--|
-0------0-------2-------2-------0-------0-------2-------2-------2-------2--|	x1
-2------0-------2-------2-------2-------0-------2-------2-------2-------2--|
-3------2-------0-------0-------3-------2-------0-------0-------0-------0--|
---------------------------------------------------------------------------|

 D	D6	Cadd9	D	D6	Cadd9
-2------2-------3-------2-------2-------3----|
-3------3-------3-------3-------3-------3----|
-2------0-------0-------2-------0-------0----|	x1
-0------0-------2-------0-------0-------2----|
--------2-------3---------------2-------3----|
---------------------------------------------|

 D	D6	Cadd9	Cadd9	Cadd9
-2------2-------3-------3-------3----|
-3------3-------3-------3-------3----|
-2------0-------0-------0-------0----|	x1
-0------0-------2-------2-------2----|
--------2-------3-------3-------3----|
-------------------------------------|

 G
-3---3--3---3--3-3--|
-3---3--3---3--3-3--|
-0h2-2--0h2-2--2-2--|	x2
-0---0--0---0--0-0--|
-0---0--2---0--0-0--|
-3---3--3---3--3-3--|

(LEAD II CHORDS)
 D	D	G	D	D  	  G	  G
-2------2-------3-------2-------2---------3-------3--|
-3------3-------3-------3-------3---------3-------3--|
-2------2-------0-------2-------2---------0-------0--|	x1
-0------0-------0-------0-------0---------0-------0--|
----------------2-------------------------2-------2--|
----------------3-------------------------3-------3--|

LEAD II:
----------------------------------------------------------|
---------7-8-7----------7-8-7--7-8-8s10--12-10-8-7-7-8-7--|
-----7-9------------7-9-----------------------------------|
-7-9------------7-9---------------------------------------|
----------------------------------------------------------|
----------------------------------------------------------|

--------------------------------------------------------------|
---------7-8-7----------7-8-7--7-8-8s10-8-7-8-7---7--7s-3s-0--|
-----7-9------------7-9-------------------------9-7--7s-4s-0--|
-7-9------------7-9-------------------------------------------|
--------------------------------------------------------------|
--------------------------------------------------------------|

(OUTRO)
 G	G	G	G
-3------3-------3-------3--|
-3------3-------3-------3--|
-0------0-------0-------0--|
-0------0-------0-------0--|
-2------2-------2-------2--|
-3------3-------3-------3--|


Past the Falls


**The electric guitar part is at the bottom**

^ - harmonic

 D	   E	     E	       E	D	  E	    E	      E
-0-0-0-0-0-0-0-0-0-0-0-0-0-0-0-0--------0-0-0-0-0-0-0-0-0-0-7-0-0-0-0-0--|
-0-0-0-0-0-0-0-0-0-0-0-0-0-0-0-0--------0-0-0-0-0-0-0-0-0-0-7-0-0-0-0-0--|
-7-7-7-7-7s9-9-9-9-9-9-9-9-9-9-9--------7-7-7-7-7s9-9-9-9-9-9-9-9-9-9-9--|	x2
-7-7-7-7-7s9-9-9-9-9-9-9-9-9-9-9--------7-7-7-7-7s9-9-9-9-9-9-9-9-9-9-9--|
-5-5-5-5-5s7-7-7-7-7-7-7-7-7-7-7--------5-5-5-5-5s7-7-7-7-7-7-7-7-7-7-7--|
-0-0-0-0-0-0-0-0-0-0-0-0-0-0-0-0--------0-0-0-0-0-0-0-0-0-0-0-0-0-0-0-0--|

 D	   E	     E	       E	A
-0-0-0-0-0-0-0-0-0-0-0-0-0-0-0-0--------0--|
-0-0-0-0-0-0-0-0-0-0-0-0-0-0-0-0--------0--|
-7-7-7-7-7s9-9-9-9-9-9-9-9-9-9-9--------6--|	x1
-7-7-7-7-7s9-9-9-9-9-9-9-9-9-9-9--------7--|
-5-5-5-5-5s7-7-7-7-7-7-7-7-7-7-7--------7--|
-0-0-0-0-0-0-0-0-0-0-0-0-0-0-0-0--------0--|

 D	   E	     E	       E
-0-0-0-0-0-0-0-0-0-0-0-0-0-0-0-0--|
-0-0-0-0-0-0-0-0-0-0-0-0-0-0-0-0--|
-7-7-7-7-7s9-9-9-9-9-9-9-9-9-9-9--|	x2
-7-7-7-7-7s9-9-9-9-9-9-9-9-9-9-9--|
-5-5-5-5-5s7-7-7-7-7-7-7-7-7-7-7--|
-0-0-0-0-0-0-0-0-0-0-0-0-0-0-0-0--|

 D	   E	     E	       E	A	A	E
-0-0-0-0-0-0-0-0-0-0-0-0-0-0-0-0--------0-------0-------0--|
-0-0-0-0-0-0-0-0-0-0-0-0-0-0-0-0--------0-------0-------0--|
-7-7-7-7-7s9-9-9-9-9-9-9-9-9-9-9--------6-------6-------1--|	x1
-7-7-7-7-7s9-9-9-9-9-9-9-9-9-9-9--------7-------7-------2--|
-5-5-5-5-5s7-7-7-7-7-7-7-7-7-7-7--------7-------7-------2--|
-0-0-0-0-0-0-0-0-0-0-0-0-0-0-0-0--------0-------0-------0--|

 A	D	E	E
-0------2-------0-------0--|
-0------3-------0-------0--|
-6------2-------1-------1--|	x2
-7------0-------2-------2--|
-7--------------2-------2--|
----------------0-------0--|

 D	   E	     E	       E
-0-0-0-0-0-0-0-0-0-0-0-0-0-0-0-0--|
-0-0-0-0-0-0-0-0-0-0-0-0-0-0-0-0--|
-7-7-7-7-7s9-9-9-9-9-9-9-9-9-9-9--|	x2
-7-7-7-7-7s9-9-9-9-9-9-9-9-9-9-9--|
-5-5-5-5-5s7-7-7-7-7-7-7-7-7-7-7--|
-0-0-0-0-0-0-0-0-0-0-0-0-0-0-0-0--|

 D	   E	     E	       E	A
-0-0-0-0-0-0-0-0-0-0-0-0-0-0-0-0--------0--|
-0-0-0-0-0-0-0-0-0-0-0-0-0-0-0-0--------0--|
-7-7-7-7-7s9-9-9-9-9-9-9-9-9-9-9--------6--|	x1
-7-7-7-7-7s9-9-9-9-9-9-9-9-9-9-9--------7--|
-5-5-5-5-5s7-7-7-7-7-7-7-7-7-7-7--------7--|
-0-0-0-0-0-0-0-0-0-0-0-0-0-0-0-0--------0--|

 D	   E	     E	       E
-0-0-0-0-0-0-0-0-0-0-0-0-0-0-0-0--|
-0-0-0-0-0-0-0-0-0-0-0-0-0-0-0-0--|
-7-7-7-7-7s9-9-9-9-9-9-9-9-9-9-9--|	x2
-7-7-7-7-7s9-9-9-9-9-9-9-9-9-9-9--|
-5-5-5-5-5s7-7-7-7-7-7-7-7-7-7-7--|
-0-0-0-0-0-0-0-0-0-0-0-0-0-0-0-0--|

 D	   E	     E	       E	A	A	E
-0-0-0-0-0-0-0-0-0-0-0-0-0-0-0-0--------0-------0-------0--|
-0-0-0-0-0-0-0-0-0-0-0-0-0-0-0-0--------0-------0-------0--|
-7-7-7-7-7s9-9-9-9-9-9-9-9-9-9-9--------6-------6-------1--|	x1
-7-7-7-7-7s9-9-9-9-9-9-9-9-9-9-9--------7-------7-------2--|
-5-5-5-5-5s7-7-7-7-7-7-7-7-7-7-7--------7-------7-------2--|
-0-0-0-0-0-0-0-0-0-0-0-0-0-0-0-0--------0-------0-------0--|

 A	D	E	E
-0------2-------0-------0--|
-0------3-------0-------0--|
-6------2-------1-------1--|	x2
-7------0-------2-------2--|
-7--------------2-------2--|
----------------0-------0--|

 D	   E	     E	       E
-0-0-0-0-0-0-0-0-0-0-0-0-0-0-0-0--|
-0-0-0-0-0-0-0-0-0-0-0-0-0-0-0-0--|
-7-7-7-7-7s9-9-9-9-9-9-9-9-9-9-9--|	x4
-7-7-7-7-7s9-9-9-9-9-9-9-9-9-9-9--|
-5-5-5-5-5s7-7-7-7-7-7-7-7-7-7-7--|
-0-0-0-0-0-0-0-0-0-0-0-0-0-0-0-0--|

 D	   E	     E	       E
-0-0-0-0-0-0-0-0-0-0-0-0-0-0-0-0-0-0-0-0-0---|
-0-0-0-0-0-0-0-0-0-0-0-0-0-0-0-0-0-0-0-0-0---|
-7-7-7-7-7s9-9-9-9-9-9-9-9-9-9-9-9-9-9-9s11--|	x1
-7-7-7-7-7s9-9-9-9-9-9-9-9-9-9-9-9-9-9-9s11--|
-5-5-5-5-5s7-7-7-7-7-7-7-7-7-7-7-7-7-7-7s9---|
-0-0-0-0-0-0-0-0-0-0-0-0-0-0-0-0-0-0-0-0-0---|

(LEAD CHORDS PART A)
 D	   E	     E
-0-0-0-0-0-0-0-0-0-0-0-|
-0-0-0-0-0-0-0-0-0-0-0-|
-7-7-7-7-7s9-9-9-9-9-9-|	x3
-7-7-7-7-7s9-9-9-9-9-9-|
-5-5-5-5-5s7-7-7-7-7-7-|
-0-0-0-0-0-0-0-0-0-0-0-|

(LEAD CHORDS PART B)
 D	   E	     E	       E
-0-0-0-0-0-0-0-0-0-0-0-0-0-0-0-0--|
-0-0-0-0-0-0-0-0-0-0-0-0-0-0-0-0--|
-7-7-7-7-7s9-9-9-9-9-9-9-9-9-9-9--|	x1
-7-7-7-7-7s9-9-9-9-9-9-9-9-9-9-9--|
-5-5-5-5-5s7-7-7-7-7-7-7-7-7-7-7--|
-0-0-0-0-0-0-0-0-0-0-0-0-0-0-0-0--|

LEAD:
----------------------------------------------------|
----------------------------------------------------|
-^7--^12--^5--^7--^7--^12--^5--^7--^7--^12--^5--^7--|
-^7--^12--^5--^7--^7--^12--^5--^7--^7--^12--^5--^7--|
----------------------------------------------------|
----------------------------------------------------|

 A	Bsus4	A	Bsus4	A	Bsus4	Bsus4
-0------0-------0-------0-------0-------0-------0--|
-0------0-------0-------0-------0-------0-------0--|
-6------4-------6-------4-------6-------4-------4--|	x1
-7------4-------7-------4-------7-------4-------4--|
-7------2-------7-------2-------7-------2-------2--|
-0------0-------0-------0-------0-------0-------0--|

 D	   E	     E
-0-0-0-0-0-0-0-0-0-0-0-|
-0-0-0-0-0-0-0-0-0-0-0-|
-7-7-7-7-7s9-9-9-9-9-9-|	x4
-7-7-7-7-7s9-9-9-9-9-9-|
-5-5-5-5-5s7-7-7-7-7-7-|
-0-0-0-0-0-0-0-0-0-0-0-|

 D	   E	     E	       E
-0-0-0-0-0-0-0-0-0-0-0-0-0-0-0-0--|
-0-0-0-0-0-0-0-0-0-0-0-0-0-0-0-0--|
-7-7-7-7-7s9-9-9-9-9-9-9-9-9-9-9--|	x2
-7-7-7-7-7s9-9-9-9-9-9-9-9-9-9-9--|
-5-5-5-5-5s7-7-7-7-7-7-7-7-7-7-7--|
-0-0-0-0-0-0-0-0-0-0-0-0-0-0-0-0--|

 D	   E	     E	       E	A
-0-0-0-0-0-0-0-0-0-0-0-0-0-0-0-0--------0--|
-0-0-0-0-0-0-0-0-0-0-0-0-0-0-0-0--------0--|
-7-7-7-7-7s9-9-9-9-9-9-9-9-9-9-9--------6--|	x1
-7-7-7-7-7s9-9-9-9-9-9-9-9-9-9-9--------7--|
-5-5-5-5-5s7-7-7-7-7-7-7-7-7-7-7--------7--|
-0-0-0-0-0-0-0-0-0-0-0-0-0-0-0-0--------0--|

 D	   E	     E	       E
-0-0-0-0-0-0-0-0-0-0-0-0-0-0-0-0--|
-0-0-0-0-0-0-0-0-0-0-0-0-0-0-0-0--|
-7-7-7-7-7s9-9-9-9-9-9-9-9-9-9-9--|	x2
-7-7-7-7-7s9-9-9-9-9-9-9-9-9-9-9--|
-5-5-5-5-5s7-7-7-7-7-7-7-7-7-7-7--|
-0-0-0-0-0-0-0-0-0-0-0-0-0-0-0-0--|

 D	   E	     E	       E	A	A	E
-0-0-0-0-0-0-0-0-0-0-0-0-0-0-0-0--------0-------0-------0--|
-0-0-0-0-0-0-0-0-0-0-0-0-0-0-0-0--------0-------0-------0--|
-7-7-7-7-7s9-9-9-9-9-9-9-9-9-9-9--------6-------6-------1--|	x1
-7-7-7-7-7s9-9-9-9-9-9-9-9-9-9-9--------7-------7-------2--|
-5-5-5-5-5s7-7-7-7-7-7-7-7-7-7-7--------7-------7-------2--|
-0-0-0-0-0-0-0-0-0-0-0-0-0-0-0-0--------0-------0-------0--|

 A	D	E	E
-0------2-------0-------0--|
-0------3-------0-------0--|
-6------2-------1-------1--|	x4
-7------0-------2-------2--|
-7--------------2-------2--|
----------------0-------0--|

**ELECTRIC**
(2:36)
---------------------------------------------x-x--x-x--x-x--x-x--|
---------------------------------------------x-x--x-x--x-x--x-x--|
---------------------------------------------x-x--x-x--x-x--x-x--|	x1
-------5-5--------5s4--4--4-4-4--4--4--4--4--x-x--x-x--x-x--x-x--|
-5h6h7------5h6h7-7s5--5--5-5-5--5--5--5--5--x-x--x-x--x-x--x-x--|
---------------------------------------------x-x--x-x--x-x--x-x--|

---------------------------------------------x-x--x-x--x-x--x-x--|
---------------------------------------------x-x--x-x--x-x--x-x--|
---------------------------------------------x-x--x-x--x-x--x-x--|	x1
-------5-5--------5s4--4--4-4-4--4--4-4-4-4--x-x--x-x--x-x--x-x--|
-5h6h7------5h6h7-7s5--5--5-5-5--5--5-5-5-5--x-x--x-x--x-x--x-x--|
---------------------------------------------x-x--x-x--x-x--x-x--|

Questioned Apocalypse

 - Tremelo pick note many times

 E	Am	Dm	G	C	Am	E
-0------0-------1-------3-------0-------0-------0--|
-0------1-------3-------3-------1-------1-------0--|
-1------2-------2-------0-------0-------2-------1--|	x1
-2------2-------0-------0-------2-------2-------2--|
-2------0---------------2-------3-------0-------2--|
-0----------------------3-----------------------0--|

 E	Am	Dm	G	C	Am	E	E
-0------0-------1-------3-------0-------0-------0-------0--|
-0------1-------3-------3-------1-------1-------0-------0--|
-1------2-------2-------0-------0-------2-------1-------1--|	x1
-2------2-------0-------0-------2-------2-------2-------2--|
-2------0---------------2-------3-------0-------2-------2--|
-0----------------------3-----------------------0-------0--|

 E	Am	Dm	G	C	Am	E
-0------0-------1-------3-------0-------0-------0--|
-0------1-------3-------3-------1-------1-------0--|
-1------2-------2-------0-------0-------2-------1--|	x4
-2------2-------0-------0-------2-------2-------2--|
-2------0---------------2-------3-------0-------2--|
-0----------------------3-----------------------0--|

 Am	C	Dm	G	C	Am	E
-0------0-------1-------3-------0-------0-------0--|
-1------1-------3-------3-------1-------1-------0--|
-2------0-------2-------0-------0-------2-------1--|	x1
-2------2-------0-------0-------2-------2-------2--|
-0------3---------------2-------3-------0-------2--|
------------------------3-----------------------0--|

 Am	C	Dm	G	C	Am	E	E
-0------0-------1-------3-------0-------0-------0-------0--|
-1------1-------3-------3-------1-------1-------0-------0--|
-2------0-------2-------0-------0-------2-------1-------1--|	x1
-2------2-------0-------0-------2-------2-------2-------2--|
-0------3---------------2-------3-------0-------2-------2--|
------------------------3-----------------------0-------0--|

 E	Am	Dm	G	C	Am	E
-0------0-------1-------3-------0-------0-------0--|
-0------1-------3-------3-------1-------1-------0--|
-1------2-------2-------0-------0-------2-------1--|	x4
-2------2-------0-------0-------2-------2-------2--|
-2------0---------------2-------3-------0-------2--|
-0----------------------3-----------------------0--|

 Am	C	Dm	G	C	Am	E
-0------0-------1-------3-------0-------0-------0--|
-1------1-------3-------3-------1-------1-------0--|
-2------0-------2-------0-------0-------2-------1--|	x2
-2------2-------0-------0-------2-------2-------2--|
-0------3---------------2-------3-------0-------2--|
------------------------3-----------------------0--|

(LEAD CHORDS PART A)
 Am	Am	Dm	Dm	E	E	Am	Am
-0------0-------1-------1-------0-------0-------0-------0--|
-1------1-------3-------3-------0-------0-------1-------1--|
-2------2-------2-------2-------1-------1-------2-------2--|	x2
-2------2-------0-------0-------2-------2-------2-------2--|
-0------0-----------------------2-------2-------0-------0--|
--------------------------------0-------0------------------|

(LEAD CHORDS PART B)
 Am	Am	Dm	Dm	E	E	F	F	F	F
-0------0-------1-------1-------0-------0-------1-------1-------1-------1--|
-1------1-------3-------3-------0-------0-------1-------1-------1-------1--|
-2------2-------2-------2-------1-------1-------2-------2-------1-------1--|	x1
-2------2-------0-------0-------2-------2-------3-------3-------1-------1--|
-0------0-----------------------2-------2-------3-------3-------1-------1--|
--------------------------------0-------0-------1-------1-------1-------1--|

(LEAD CHORDS PART C)
 E	Am	Dm	G	C	Am	E
-0------0-------1-------3-------0-------0-------0--|
-0------1-------3-------3-------1-------1-------0--|
-1------2-------2-------0-------0-------2-------1--|	x2
-2------2-------0-------0-------2-------2-------2--|
-2------0---------------2-------3-------0-------2--|
-0----------------------3-----------------------0--|

LEAD:
 Am  		Dm
-0-0--0---------1-1--1-3-3s5--5-5-5--8-7-5--7---7----8-7----7----|
-1-1--1-3-3s5---3-3--3------------------------8----------10------|
-2-2--2---------2-2--2----------------------------9-----------9--|
-2-2--2---------0-0--0-------------------------------------------|
-0-0--0----------------------------------------------------------|
-----------------------------------------------------------------|

-s12-12-12--12-13-10-12--s12-12-12--13-10----10---10-10-10-8-7-8-------------------|
------------------------------------------12----------------------8--8--6-6-6-5-5--|
-----------------------------------------------------------------------------------|
-----------------------------------------------------------------------------------|
-----------------------------------------------------------------------------------|
-----------------------------------------------------------------------------------|

-----5-6-5-----8--7-8-8--8-8--*8-*10-*12-*13-*10-*12-*13-*10-*12-*13-*10-*12--|
-5-6-------6-5----------------------------------------------------------------|
------------------------------------------------------------------------------|
------------------------------------------------------------------------------|
------------------------------------------------------------------------------|
------------------------------------------------------------------------------|

-*13-*12-*10-*8-*7-*5-*7---------------------------------------|
--------------------------5--5-6-6s8--8s10--10s12-12s15-15s17--|
---------------------------------------------------------------|
---------------------------------------------------------------|
---------------------------------------------------------------|
---------------------------------------------------------------|

 Am	C	Dm	G	C	Am	E
-0------0-------1-------3-------0-------0-------0--|
-1------1-------3-------3-------1-------1-------0--|
-2------0-------2-------0-------0-------2-------1--|	x4
-2------2-------0-------0-------2-------2-------2--|
-0------3---------------2-------3-------0-------2--|
------------------------3-----------------------0--|


Steeples

* - Tremelo pick note many times
^ - harmonic

-------------------------------------------------------------|
-------------------------------------------------------------|
-------------------------------------------------------------|	x1
-------------------------------------------------------------|
------1h2------1h22s4-4-5s0------1h2-----1h2-2s4-4s99-9-9--|
--2h3------2h3----------------2h3-----2h3--------------------|

 F#  G   F# G   F#  G   F# G  F#
-2---3---2--3---2---3---2--3--2--|
-2---3---2--3---2---3---2--3--2--|
-3---4---3--4---3---4---3--4--3--|	x3
-4---5---4--5---4---5---4--5--4--|
-4---5---4--5---4---5---4--5--4--|
-2---3---2--3---2---3---2--3--2--|

 Bm	F#	G	D
-2------2-------3-------2--|
-3------2-------3-------3--|
-4------3-------4-------2--|	x4
-4------4-------5-------0--|
-2------4-------5----------|
--------2-------3----------|

 Em	A	G	F#	F#
-0--^12-0-------3-------2-------2--|
-0--^12-2-------3-------2-------2--|
-0--^12-2-------4-------3-------3--|	x1
-2------2-------5-------4-------4--|
-2------0-------5-------4-------4--|
-0------0-------3-------2-------2--|

 F#  G   F# G   F#  G   F# G  F#
-2---3---2--3---2---3---2--3--2--|
-2---3---2--3---2---3---2--3--2--|
-3---4---3--4---3---4---3--4--3--|	x3
-4---5---4--5---4---5---4--5--4--|
-4---5---4--5---4---5---4--5--4--|
-2---3---2--3---2---3---2--3--2--|

 Bm	F#	G	D
-2------2-------3-------2--|
-3------2-------3-------3--|
-4------3-------4-------2--|	x4
-4------4-------5-------0--|
-2------4-------5----------|
--------2-------3----------|

 Em	A	G	F#	F#
-0--^12-0-------3-------2-------2--|
-0--^12-2-------3-------2-------2--|
-0--^12-2-------4-------3-------3--|	x1
-2------2-------5-------4-------4--|
-2------0-------5-------4-------4--|
-0------0-------3-------2-------2--|

(BASS)

 Bm	F#	G	D
-2------2-------3-------2--|
-3------2-------3-------3--|
-4------3-------4-------2--|	x4
-4------4-------5-------0--|
-2------4-------5----------|
--------2-------3----------|

 Em	A	G	F#	F#
-0--^12-0-------3-------2-------2--|
-0--^12-2-------3-------2-------2--|
-0--^12-2-------4-------3-------3--|	x1
-2------2-------5-------4-------4--|
-2------0-------5-------4-------4--|
-0------0-------3-------2-------2--|

(LEAD CHORDS PART A)
 F#  G   F# G   F#  G   F# G  F#
-2---3---2--3---2---3---2--3--2--|
-2---3---2--3---2---3---2--3--2--|
-3---4---3--4---3---4---3--4--3--|	x3
-4---5---4--5---4---5---4--5--4--|
-4---5---4--5---4---5---4--5--4--|
-2---3---2--3---2---3---2--3--2--|

(LEAD CHORDS PART B)
 Bm	F#	G	D
-2------2-------3-------2--|
-3------2-------3-------3--|
-4------3-------4-------2--|	x4
-4------4-------5-------0--|
-2------4-------5----------|
--------2-------3----------|

(LEAD CHORDS PART C)
 Em	A	G	F#	F#
-0--^12-0-------3-------2-------2--|
-0--^12-2-------3-------2-------2--|
-0--^12-2-------4-------3-------3--|	x1
-2------2-------5-------4-------4--|
-2------0-------5-------4-------4--|
-0------0-------3-------2-------2--|

LEAD:
-2s3-2-3-3s5-5-5s7-7-7s9-9-9-10--10s-0-10s-0-10-10s12-12-10-9-9h10p9-----------------|
---------------------------------------------------------------------10s12-12s14-14--|
-------------------------------------------------------------------------------------|
-------------------------------------------------------------------------------------|
-------------------------------------------------------------------------------------|
-------------------------------------------------------------------------------------|

-10-9----10-9--10-9----9------------------------------------------|
------12------------12--------------------------------------------|
------------------------------3-4-3-------3-4-3-4-3s6-6s11-11-11--|
--------------------------4-5-------5-4-5-------------------------|
------------------------------------------------------------------|
------------------------------------------------------------------|

-------------------7s99s7-7s99s7-7s9-9s7-7s9-9-10-12s14-14-12-10-9--|
-----------------------------------------------------------------------|
-11*-9*-7*-6*-7*---7s9-9s7-7s9-9s7-7s9-9s7-7s9-9-11--------------------|
-----------------------------------------------------------------------|
-----------------------------------------------------------------------|
-----------------------------------------------------------------------|

-9h10p9-12-10-9h10p9-------9h10p9-12-10-9h10p9---------------|
---------------------12-10---------------------12-10-10-8-7--|
-------------------------------------------------------------|
-------------------------------------------------------------|
-------------------------------------------------------------|
-------------------------------------------------------------|

---------------------------------------------------------------10-12-12b14r12-10-12--|
-7h8p7-----------------------------------10s12-12-12-10--10-12-----------------------|
-------9-7-7b9r7-------7---7-9-9s11-9h11---------------------------------------------|
-----------------9-7h9---9-----------------------------------------------------------|
-------------------------------------------------------------------------------------|
-------------------------------------------------------------------------------------|

-12p10-------10-10s9-9-9h10-10s12-10-9-9h10p9-----------|
-------12-10----------------------------------12-10-----|
----------------------------------------------------12--|
--------------------------------------------------------|
--------------------------------------------------------|
--------------------------------------------------------|

--------------------------------------------------------------|
--------------s12-12-12-11-11h12-12s14-14-12-11-12-12s14-14*--|
-s12-12-12-11-------------------------------------------------|
--------------------------------------------------------------|
--------------------------------------------------------------|
--------------------------------------------------------------|

 Bm	F#	G	D
-2------2-------3-------2--|
-3------2-------3-------3--|
-4------3-------4-------2--|	x4
-4------4-------5-------0--|
-2------4-------5----------|
--------2-------3----------|

 Em	A	G	F#	F#	F#	F#
-0--^12-0-------3-------2-------2-------2-------2--|
-0--^12-2-------3-------2-------2-------2-------2--|
-0--^12-2-------4-------3-------3-------3-------3--|	x1
-2------2-------5-------4-------4-------4-------4--|
-2------0-------5-------4-------4-------4-------4--|
-0------0-------3-------2-------2-------2-------2--|

 F#  G   F# G   F#  G   F# G  F#
-2---3---2--3---2---3---2--3--2--|
-2---3---2--3---2---3---2--3--2--|
-3---4---3--4---3---4---3--4--3--|	x3
-4---5---4--5---4---5---4--5--4--|
-4---5---4--5---4---5---4--5--4--|
-2---3---2--3---2---3---2--3--2--|


Walk With You

^ - harmonic

**CAPO 2ND FRET**

---------0h2-------------0h2----------0h2-------------0h2p0------|
-------3-----3---------3------------3-----3---------3-------3----|
---0h2---------2---0h2----------0h2---------2---0h2-----------2--|	x2
-0---------------0------------0---------------0------------------|
-----------------------------------------------------------------|
-----------------------------------------------------------------|

---------0---------------0---------------0---------------0--------|
---3-------3---3---3-------3---3---3-------3---3---3-------3------|
-----0---------------0---------------0---------------0---------0--| x1
-------------------------------------------------2-----2-----2----|
-3-----3-----3---2-----2-----2---0-----0-----0--------------------|
------------------------------------------------------------------|

---------0h2-------------0h2----------0h2-------------0h2p0------|
-------3-----3---------3------------3-----3---------3-------3----|
---0h2---------2---0h2----------0h2---------2---0h2-----------2--|	x2
-0---------------0------------0---------------0------------------|
-----------------------------------------------------------------|
-----------------------------------------------------------------|

---------0---------------0---------------0---------------0--------|
---3-------3---3---3-------3---3---3-------3---3---3-------3------|
-----0---------------0---------------0---------------0---------0--| x1
-------------------------------------------------2-----2-----2----|
-3-----3-----3---2-----2-----2---0-----0-----0--------------------|
------------------------------------------------------------------|

---------0h2-------------0h2----------0h2-------------0h2p0------|
-------3-----3---------3------------3-----3---------3-------3----|
---0h2---------2---0h2----------0h2---------2---0h2-----------2--|	x2
-0---------------0------------0---------------0------------------|
-----------------------------------------------------------------|
-----------------------------------------------------------------|

---------0---------------0---------------0--------|
---3-------3---3---3-------3---3---3-------3---3--|
-----0---------------0---------------0------------|	x2
--------------------------------------------------|
-3-----3-----3---2-----2-----2---0-----0-----0----|
--------------------------------------------------|

---------0-------------3---------------0--------|
---3-------3---3---3-----3---3---3-------3---3--|
-----0---------------0-----0-------0------------|	x2
------------------------------------------------|
-3-----3-----3---2-------------0-----0-----0----|
------------------------------------------------|

---------0---------------0---------------0--------|
---3-------3-------3-------3---3---3-------3------|
-----0---------0-----0---------------0---------0--| x1
-2-----2-----2-------------------2-----2-----2----|
-----------------0-----0-----0--------------------|
--------------------------------------------------|

---------0h2-------------0h2----------0h2-------------0h2p0------|
-------3-----3---------3------------3-----3---------3-------3----|
---0h2---------2---0h2----------0h2---------2---0h2-----------2--|	x3
-0---------------0------------0---------------0------------------|
-----------------------------------------------------------------|
-----------------------------------------------------------------|

---------0h2p0-------------0h2p0------|
-------3-------3---------3-------3----|
---0h2-----------2---0h2-----------2--|	x1
-0-----------------0------------------|
--------------------------------------|
--------------------------------------|

---------0h2p0-------------0h2p0-------------0h2--|
-------3-------3---------3-------3---------3------|
---0h2-----------2---0h2-----------2---0h2--------|	x1
-0-----------------0-----------------0------------|
--------------------------------------------------|
--------------------------------------------------|

 D	Cadd9	G	G	D   	G	Cadd9	Cadd9
-2------3-------3-------3-------2---3---3-------3-------3----|
-3------3-------3-------3-------3---3---3-------3-------3----|
-2------0-------0-------0-------2---2---0-------0-------0----|	x3
-0------2-------0-------0-------0---3---0-------2-------2----|
--------3-------2-------2---------------2-----0h3-------3----|
----------------3-------3-------------0h3--------------------|

 D	D	Em                    C	      G	      D	      Em		    C	    D	    C	    C
-2------2-------0---0-0-0---0-0-0-0---0-------3-------2-------0---0-0-0-------^12-0-0-------0-------0-------0--|
-3------3-------0---0-0-0---0-0-0-0---1-------3-------3-------0---0-0-0---^12-^12-0-1------s3-------1-------1--|
-2------2-------0---0-0-0---0-0-0-0---0-------0-------2-------0---0-0-0---^12-------0-------0-------0-------0--|	x1
-0------0-------0h2-2-2-0h2-2-2-2-2---2-------0-------0-------0h2-2-2-0h2-----------2------s4-------2-------2--|
----------------0h2-2-2-0h2-2-2-2-2---3-------2---------------0h2-2-2-0h2-----------3------s5-------3-------3--|
----------------0---0-0-0---0-0-0-0-----------3---------------0---0-0-0----------------------------------------|

 D	Cadd9	G	G	D   	G	Cadd9	Cadd9
-2------3-------3-------3-------2---3---3-------3-------3----|
-3------3-------3-------3-------3---3---3-------3-------3----|
-2------0-------0-------0-------2---2---0-------0-------0----|	x2
-0------2-------0-------0-------0---3---0-------2-------2----|
--------3-------2-------2---------------2-----0h3-------3----|
----------------3-------3-------------0h3--------------------|

 D	D	Em			C	G	D
-2------2-------0---0-0-0---0-0-0-0-----0-------3-------2--|
-3------3-------0---0-0-0---0-0-0-0-----1-------3-------3--|
-2------2-------0---0-0-0---0-0-0-0-----0-------0-------2--|	x1
-0------0-------0h2-2-2-0h2-2-2-2-2-----2-------0-------0--|
----------------0h2-2-2-0h2-2-2-2-2-----3-------2----------|
----------------0---0-0-0---0-0-0-0-------------3----------|

 Em		       C	Em			C	G	D
-0---0-0-0---0-0-0-0---0--------0---0-0-0---0-0-0-0-----0-------3-------2--|
-0---0-0-0---0-0-0-0---1--------0---0-0-0---0-0-0-0-----1-------3-------3--|
-0---0-0-0---0-0-0-0---0--------0---0-0-0---0-0-0-0-----0-------0-------2--|	x1
-0h2-2-2-0h2-2-2-2-2---2--------0h2-2-2-0h2-2-2-2-2-----2-------0-------0--|
-0h2-2-2-0h2-2-2-2-2---3--------0h2-2-2-0h2-2-2-2-2-----3-------2----------|
-0---0-0-0---0-0-0-0------------0---0-0-0---0-0-0-0-------------3----------|

 Em		       C	D       C	C	D   	C	C	D	C	C
-0---0-0-0-------^12-0-0--------0-------0-------0-------0---5---0-------0-------0---5---0-------0--|
-0---0-0-0---^12-^12-0-1-------s3-------1-------1------s3---3---1-------1------s3---3---1-------1--|
-0---0-0-0---^12-------0--------0-------0-------0-------0---0---0-------0-------0---0---0-------0--|  x1
-0h2-2-2-0h2-----------2-------s4-------2-----0h2------s4---4---2-----0h2------s4---4---2-------2--|
-0h2-2-2-0h2-----------3-------s5-------3-------3------s5---5---3-------3------s5---5---3-------3--|
-0---0-0-0-----------------------------------------------------------------------------------------|

 D	Cadd9	G	G	D   	G	Cadd9	Cadd9
-2------3-------3-------3-------2---3---3-------3-------3----|
-3------3-------3-------3-------3---3---3-------3-------3----|
-2------0-------0-------0-------2---2---0-------0-------0----|	x2
-0------2-------0-------0-------0---3---0-------2-------2----|
--------3-------2-------2---------------2-----0h3-------3----|
----------------3-------3-------------0h3--------------------|

 D	D	Em				C	G	D
-2------2-------0---0-0-0---0-0-0-0-----^12-0---0-------3-------2--|
-3------3-------0---0-0-0---0-0-0-0-^12-^12-0---1-------3-------3--|
-2------2-------0---0-0-0---0-0-0-0-^12---------0-------0-------2--|	x1
-0------0-------0h2-2-2-0h2-2-2-2-2-------------2-------0-------0--|
----------------0h2-2-2-0h2-2-2-2-2-----------0h3-------2----------|
----------------0---0-0-0---0-0-0-0---------------------3----------|

 Em		                C       G       D	Em			C	D	C
-0---0-0-0---0-0-0-0-^12--^5----0-------3-------2-------0---0-0-0---0-0-0-0-----0-------0-------0--|
-0---0-0-0---0-0-0-0-^12--^5----1-------3-------3-------0---0-0-0---0-0-0-0-----1------s3-------1--|
-0---0-0-0---0-0-0-0-^12--^5----0-------0-------2-------0---0-0-0---0-0-0-0-----0-------0-------0--| x1
-0h2-2-2-0h2-2-2-2-2------------2-------0-------0-------0h2-2-2-0h2-2-2-2-2-----2------s4-------2--|
-0h2-2-2-0h2-2-2-2-2----------0h3-------2---------------0h2-2-2-0h2-2-2-2-2---0h3------s5-------3--|
-0---0-0-0---0-0-0-0--------------------3---------------0---0-0-0---0-0-0-0------------------------|

   C	   D	   C	   C	   D	   C	   C	   D	   C
---0------s5-------3-------3------s5-------3-------3------s5-------3--|
---1------s3-------1-------1------s3-------1-------1------s3-------1--|
---0-------0-------0-------0-------0-------0-------0-------0-------0--|	x1
-0h2------s4-------2-----0h2------s4-------2-----0h2------s4-------2--|
---3------s5-------3-------3------s5-------3-------3------s5-------3--|
----------------------------------------------------------------------|

 Cadd9	Cadd9	Cadd9		G
-3------3-------3---------------3--|
-3------3-------3---------------3--|
-0------0-------0---------------0--|	x1
-2------2-------2---------------0--|
-3------3-------3--2h3p2p0h2p0--2--|
--------------------------------3--|

Water Stop


# - scrape the freted string with the edge the guitar pick

 Dm	Am	G	F
-1------0-------3-------1--|
-3------1-------3-------1--|
-2------2-------0-------2--|	x3
-0------2-------0-------3--|
--------0-------2-------3--|
----------------3-------1--|

 Dm	Am	G	F	F
-1------0-------3-------1-------1--|
-3------1-------3-------1-------1--|
-2------2-------0-------2-------2--|	x1
-0------2-------0-------3-------3--|
--------0-------2-------3-------3--|
----------------3-------1-------1--|

 Dm	Am	G	F
-1------0-------3-------1--|
-3------1-------3-------1--|
-2------2-------0-------2--|	x3
-0------2-------0-------3--|
--------0-------2-------3--|
----------------3-------1--|

 Dm	Am	G	F	F
-1------0-------3-------1-------1--|
-3------1-------3-------1-------1--|
-2------2-------0-------2-------2--|	x1
-0------2-------0-------3-------3--|
--------0-------2-------3-------3--|
----------------3-------1-------1--|

 Dm	Am	G	F
-1------0-------3-------1--|
-3------1-------3-------1--|
-2------2-------0-------2--|	x3
-0------2-------0-------3--|
--------0-------2-------3--|
----------------3-------1--|

 Dm	Am	G	F	F
-1------0-------3-------1-------1--|
-3------1-------3-------1-------1--|
-2------2-------0-------2-------2--|	x1
-0------2-------0-------3-------3--|
--------0-------2-------3-------3--|
----------------3-------1-------1--|

 Dm	Am	G	F
-1------0-------3-------1--|
-3------1-------3-------1--|
-2------2-------0-------2--|	x3
-0------2-------0-------3--|
--------0-------2-------3--|
----------------3-------1--|

 Dm	Am	G	F	F
-1------0-------3-------1-------1--|
-3------1-------3-------1-------1--|
-2------2-------0-------2-------2--|	x1
-0------2-------0-------3-------3--|
--------0-------2-------3-------3--|
----------------3-------1-------1--|

 C	G	FM7 Am	FM7 Am
-0------3-------0---0---0---0--|
-1------3-------1---1---1---1--|
-0------0-------2---2---2---2--|	x2
-2------0-------3---2---3---2--|
-3------2-----------0-------0--|
--------3----------------------|

 Dm	Am	G	F
-1------0-------3-------1--|
-3------1-------3-------1--|
-2------2-------0-------2--|	x2
-0------2-------0-------3--|
--------0-------2-------3--|
----------------3-------1--|

(LEAD I CHORDS)
 Dm	Am	G	F
-1------0-------3-------1--|
-3------1-------3-------1--|
-2------2-------0-------2--|	x4
-0------2-------0-------3--|
--------0-------2-------3--|
----------------3-------1--|

LEAD I:
--------------------------------------------------------------------------------------|
-10-13-10------10---------------------------------------------------------------------|
----------12-9----9h12p9-----12-9-----12-9--10p9-----------------10p9-----------------|
--------------------------12-------12------------12-10-10-10h12-------12-10-10--------|
-------------------------------------------------------------------------------10h12--|
--------------------------------------------------------------------------------------|

--------------7-7s8-8-8--8-8s10-10-10-10--7-7s8-8-8--8-8s12-12-12-12--|
----------------------------------------------------------------------|
-12-9-----------------------------------------------------------------|
-------12-10----------------------------------------------------------|
----------------------------------------------------------------------|
----------------------------------------------------------------------|

 Dm	Am	G	F
-1------0-------3-------1--|
-3------1-------3-------1--|
-2------2-------0-------2--|	x3
-0------2-------0-------3--|
--------0-------2-------3--|
----------------3-------1--|

 Dm	Am	G	F	F
-1------0-------3-------1-------1--|
-3------1-------3-------1-------1--|
-2------2-------0-------2-------2--|	x1
-0------2-------0-------3-------3--|
--------0-------2-------3-------3--|
----------------3-------1-------1--|

 Dm	Am	G	F
-1------0-------3-------1--|
-3------1-------3-------1--|
-2------2-------0-------2--|	x3
-0------2-------0-------3--|
--------0-------2-------3--|
----------------3-------1--|

 Dm	Am	G	F	F
-1------0-------3-------1-------1--|
-3------1-------3-------1-------1--|
-2------2-------0-------2-------2--|	x1
-0------2-------0-------3-------3--|
--------0-------2-------3-------3--|
----------------3-------1-------1--|

 C	G	FM7 Am	FM7 Am
-0------3-------0---0---0---0--|
-1------3-------1---1---1---1--|
-0------0-------2---2---2---2--|	x3
-2------0-------3---2---3---2--|
-3------2-----------0-------0--|
--------3----------------------|

 Dm	Am	G	F
-1------0-------3-------1--|
-3------1-------3-------1--|
-2------2-------0-------2--|	x2
-0------2-------0-------3--|
--------0-------2-------3--|
----------------3-------1--|

(LEAD II CHORDS)
 Dm	Am	G	F
-1------0-------3-------1--|
-3------1-------3-------1--|
-2------2-------0-------2--|	x8
-0------2-------0-------3--|
--------0-------2-------3--|
----------------3-------1--|

LEAD II:
-------------------------------------------------------------------------------------------------|
-------------------------------------------------------------------------------------------------|
-------------------------------------------------------------------------------------------------|
-5-5s7-7-7-7s9-9-9-9s10-10-10-10s12-12s14-14--5-5s7-7-7-7s9-9-9-9s10-10-10-10s12-12s14-14-14-14--|
-------------------------------------------------------------------------------------------------|
-------------------------------------------------------------------------------------------------|

--------------------------------------------------------------|
--------------------------------------------------------------|
--------------------------------------------------------------|
5-5s7-7-7-7s9-9-9-9s10-10-10-10s12-12s14-14-14-14-14--7#-10#--|
--------------------------------------------------------------|
--------------------------------------------------------------|

-s12-12-12--12--12--10-10--8--7-7s8----s12-12-12--12--12--10-10--8--7-7s8---|
-s13-13-13--13--13--12-12--10-8-8s10---s13-13-13--13--13--12-12--10-8-8s10--|
----------------------------------------------------------------------------|
----------------------------------------------------------------------------|
----------------------------------------------------------------------------|
----------------------------------------------------------------------------|

-s12-12-12--12-12-12--12-12-15-12--15-12--15-12--15-12--17--17-17--17--17*--12--|
-s13-13-13--13-13-13--13-13-13-13--13-13--13-13--13-13--13--13-13--13--13*------|
--------------------------------------------------------------------------------|
--------------------------------------------------------------------------------|
--------------------------------------------------------------------------------|
--------------------------------------------------------------------------------|
Related for Silent Steepls tab