Song name
# A B C D E F G H I J K L M N O P Q R S T U V W X Y Z

Dispatch - 54 tab

54
Who are we living for
Dispatch

------------------------------------------------|
------------------------------------------------|
------------------------------------------------|	x1
------------------------------------------------|
-7s------5--7s--------5--7s------5--7s--------5-|
-----5-7--------5-5-7--------5-7--------5-5-7---|

---------------------------------------------------|
---------------------------------------------------|
---------------------------------------------------|	x1
---------------------------------------------------|
-7s-------5--7s--------5--7s-------5--7s--------5--|
----5-5-7--------5-5-7-------5-5-7--------5-5-7----|

---------------------------------------------------|
---------------------------------------------------|
---------------------------------------------------|	x1
---------------------------------------------------|
-9s-------7--9s--------7--7s-------5--7s--------5--|
----7-7-9--------7-7-9-------5-5-7--------5-5-7----|

----------------------------------------------------------|
----------------------------------------------------------|
----------------------------9s----------7--9s----------7--|	x1
--------------------------------7-7-7-9--------7-7-7-9----|
-7s-------5--7s----------5--------------------------------|
----5-5-7--------5-5-5-7----------------------------------|

-----------------------------------------------------|
-----------------------------------------------------|
-9s--------7--9s--------7--9s--------7--9s--------7--|	x2
-----7-7-9--------7-7-9--------7-7-9--------7-7-9----|
-----------------------------------------------------|
-----------------------------------------------------|

---------------------------------------------------------------------|
-10s-----------------------------------------------------------------|
--------7-7---7------7---7-9-9--------7--9s--------7--9s--7-7---7----|	x1
------9-----9----9s----9--------7-7-9--------7-7-9------------9------|
---------------------------------------------------------------------|
------------------------------------------------------------------0--|
Tap to rate this tab
# A B C D E F G H I J K L M N O P Q R S T U V W X Y Z