Guitaretab - guitar tabs
Song name
# A B C D E F G H I J K L M N O P Q R S T U V W X Y Z

Dispatch - Seasons Movement 3 tab

SEASONS: MOVEMENT III
by Brad Corrigan (of Dispatch)

tab by Devin Miller
email: irish__nugget@hotmail.com

Tuning: DADDae (open D5, modified 1st string)
(Regarding tuning: The 3rd and 4th string should sound identical.)

I came across this tuning at random, and it seemed to work very well.
If anyone has any ideas of a better one, let me know.

LEGEND:
| /  slide up
| \  slide down
| p  pull-off
| +  natural harmonic
| x  dead note


INTRO
(possibly played on a different kind of guitar)

e|-----------------------------------------|
a|-------0----12+-----12+------12+---------|
D|--0------0-------------------------------|
D|----------------0--------0----------0----|
A|------------------0--------0------0---0--|
D|--0---------0-------0--------0-----------| x 2

e|------------12+-----12+------12+---------|
a|-------0--------0--------0----------0----|
D|-----------------------------------------|
D|---------0--------0--------0------0---0--|
A|--8---------8-------8--------8-----------|
D|-----------------------------------------| x 2

e|-----------------------------------------|
a|-------0----12+-----12+------12+---------|
D|--0------0-------------------------------|
D|----------------0--------0----------0----|
A|------------------0--------0------0---0--|
D|--0---------0-------0--------0-----------| x 2

e|------------12+-----12+------12+---------|
a|-------0--------0--------0----------0----|
D|-----------------------------------------|
D|---------0--------0--------0------0---0--|
A|--8---------8-------8--------8-----------|
D|-----------------------------------------| x 2

e|------------------------12+---|
a|----------12+-----------------|
D|------------------------------|
D|----0-------------------------|
A|--------0---------8-----------|
D|--0-------------0-----0-------| x 3

e|-----------12+---|
a|-----------------|
D|-----------------|
D|-----------------|
A|----8------------|
D|--0-----0--------| x 3

e|--------------|
a|---12+--------|
D|--------------|
D|--------------|
A|--------------|
D|---0----------| x 1


"VERSE"
[ Tab from: http://www.guitaretab.com/d/dispatch/83649.html ]
e|------------------------------------------------------------------|
a|-----0-------0-------0-------0-------0-------0-------0-------0----|
D|------------------------------------------------------------------|
D|---0---0---0---0---0---0---0---0---6---6---6---6---6---6---6---6--|
A|-5-------5-------5-------5-------5-------5-------5-------5--------|
D|------------------------------------------------------------------| x 3

e|------------------------------------------------------------------|
a|-------7-------7-------7-------7-----0-------0-------0-------0----|
D|-----7-------7-------7-------7------------------------------------|
D|---0-------0-------0-------0-------6---6---6---6---6---6---6---6--|
A|-5-------5-------5-------5-------5-------5-------5-------5--------|
D|------------------------------------------------------------------| x 2

e|---------------------------------------------------------------|
a|-----0-------0-------0-------0-------0-------0-------0---0-----|
D|---------------------------------------------------------------|
D|---5---5---5---5---3---3---3---3---2---2---2---2---2---2-7-----|
A|-3-------3-------1-------1-------0-------0-------0-------------|
D|---------------------------------------------------------------| x 1

(use barre chords):

e|-------------5\3-----5-------3/5---|
a|-----5-------5\3-----3-------3/5---|
D|-----------------------------------|
D|---7---7---7-------5---5---5-------|
A|-5-------5-------3-------3---------|
D|-----------------------------------| x 4

e|---------------------------------------------------------------------|
a|-----0-------3p0-----0-------3p0-----0-------3p0-----0-------0-------|
D|-------------0---------------0---------------0-----------------------|
D|---0---0---0-------0---0---0-------0---0---0-------0---0---0---------|
A|-5-------5-------5-------5-------5-------5-------5-------5-----------|
D|---------------------------------------------------------------------| x 1


"CHORUS"

main strum chord:

e|-------|
a|--0----|
D|--0----|
D|--0----|
A|--0----|
D|--0----|

ensuing riff:

e|-------------------------------|
a|--0---0-0-0---0-0-0-0--0--0-0--|
D|--4/5-5-5-5-5-5-5-5/7--7--7-7--|
D|--4/5-5-5-5-5-5-5-5/7--7--7-7--|
A|--x-x-x-x-x-x-x-x-x-x--x--x-x--|
D|--2/3-3-3-3/5-5-5-5-5--5--5-5--|


HAPPY SOUNDING BRIDGE

barre chords used:

   Asus4      D 
e|---14-------12---------|
a|---12-------12---------|
D|---12-------12---------|
D|---14-------12---------|
A|---12-------12---------|
D|-----------------------|

OUTRO

(REPEAT INTRO)


ENDING HARMONICS

e|---------------------------------|
a|------------------------7+-------|
D|--------------------7+-----------|
D|-----------12+--7+---------------|
A|------12+------------------------|
D|-12+-----------------------------|

==========================================================================
Related for Seasons Movement 3 tab
×
Seasons Movement 3