Song name
# A B C D E F G H I J K L M N O P Q R S T U V W X Y Z

Dispatch - By The Phone tab

Dispatch/One Fell Swoop
Unreleased Live
By the Phone
Tabbed by Owen Sakovics
www.tabsinonefellswoop.com

 Baug5	     C5	         Dsus4	     Em
--------------------------------------------------|
--------------------------------------------------|
-------0-----------0-----------0-----------0------|	x10
---4-----4-----5-----5-----7-----7-----9-----9----|
-2---2-----2-3---3-----3-5---5-----5-7---7-----7--|
--------------------------------------------------|

 B5	C5	D5	E5
-0------0-------0-------0--|
-0------0-------0-------0--|
-0------0-------0-------0--|	x4
-4------5-------7-------9--|
-2------3-------5-------7--|
---------------------------|

 B5	C5	D5	E5	E5	E5	E5
-0------0-------0-------0-------0-------0-------0--|
-0------0-------0-------0-------0-------0-------0--|
-0------0-------0-------0-------0-------0-------0--|	x1
-4------5-------7-------9-------9-------9-------9--|
-2------3-------5-------7-------7-------7-------7--|
---------------------------------------------------|

 B5	C5	D5	E5
-0------0-------0-------0--|
-0------0-------0-------0--|
-0------0-------0-------0--|	x4
-4------5-------7-------9--|
-2------3-------5-------7--|
---------------------------|

 B5	C5	D5	E5	E5	E5	E5	C5	C5
-0------0-------0-------0-------0-------0-------0-------0-------0--|
-0------0-------0-------0-------0-------0-------0-------0-------0--|
-0------0-------0-------0-------0-------0-------0-------0-------0--|	x1
-4------5-------7-------9-------9-------9-------9-------5-------5--|
-2------3-------5-------7-------7-------7-------7-------3-------3--|
-------------------------------------------------------------------|

 Baug5	     C5	         Dsus4	     Em
--------------------------------------------------|
--------------------------------------------------|
-------0-----------0-----------0-----------0------|	x23
---4-----4-----5-----5-----7-----7-----9-----9----|
-2---2-----2-3---3-----3-5---5-----5-7---7-----7--|
--------------------------------------------------|
Tap to rate this tab
# A B C D E F G H I J K L M N O P Q R S T U V W X Y Z