Song name
# A B C D E F G H I J K L M N O P Q R S T U V W X Y Z

Dispatch - Root Down tab

Dispatch/One Fell Swoop
Four-Day Trials
Root Down
Tabbed by Owen Sakovics
www.tabsinonefellswoop.com

 Bb5	Bb5	G5	G5	G5	F	G5	G5	G5	Bb5
----------------------------------------------------------------------------|
----------------------------------------------------------------------------|
----------------------------------------------------------------------------|
-8------8-------5-------5-------5-------3-------5-------5-------5-------8---|
-8------8-------5-------5-------5-------3-------5-------5-------5-------8---|
-6------6-------3-------3-------3-------1-------3-------3-------3-------6---|

 Gm	Gm	Gm	Gm
-3------3-------3-------3--|
-3------3-------3-------3--|
-3------3-------3-------3--|
-5------5-------5-------5--|
-5------5-------5-------5--|
-3------3-------3-------3--|

**BASS & DRUMS**

 Gm	Gm	Gm	Gm	G
-3------3-------3-------3--|
-3------3-------3-------3--|
-3------3-------3-------3--|
-5------5-------5-------5--|
-5------5-------5-------5--|
-3------3-------3-------3--|

**BASS & DRUMS**

 Gm	Gm	Gm	Gm
-3------3-------3-------3--|
-3------3-------3-------3--|
-3------3-------3-------3--|
-5------5-------5-------5--|
-5------5-------5-------5--|
-3------3-------3-------3--|

**BASS & DRUMS**

 Gm	Gm	Gm	Gm
-3------3-------3-------3--|
-3------3-------3-------3--|
-3------3-------3-------3--|
-5------5-------5-------5--|
-5------5-------5-------5--|
-3------3-------3-------3--|

**VOCALS**

-------------------------|
-------------------------|
-------------------------|	x2
-5---6---7---8---9---10--|
-5---6---7---8---9---10--|
-3---4---5---6---7---8---|

 G5	G5	G5	F
---------------------------|
---------------------------|
---------------------------|	x1
-5------5-------5-------3--|
-5------5-------5-------3--|
-3------3-------3-------1--|

 Gm	Gm	Gm	Gm
-3------3-------3-------3--|
-3------3-------3-------3--|
-3------3-------3-------3--|
-5------5-------5-------5--|
-5------5-------5-------5--|
-3------3-------3-------3--|

-------------------------|
-------------------------|
-------------------------|	x2
-5---6---7---8---9---10--|
-5---6---7---8---9---10--|
-3---4---5---6---7---8---|

----3----------3------------3----------3------------3----------3---|
------3-2-1------3-2-1--------3-2-1------3-2-1--------3-2-1--------|
--3----------3---------3--3----------3---------3--3----------3---3-|
-------------------------------------------------------------------|
-------------------------------------------------------------------|
-------------------------------------------------------------------|

-------------3--|
---------2-1-3--|
------3s1s3--3--| x1
-------------5--|
-------------5--|
-------------3--|
Tap to rate this tab
# A B C D E F G H I J K L M N O P Q R S T U V W X Y Z