Song name
# A B C D E F G H I J K L M N O P Q R S T U V W X Y Z

Dispatch - Fat Ol Pig tab

Dispatch/One Fell Swoop
Under the Rader/Patchwork CD
Fat Ol' Pig
Tabbed by Owen Sakovics
www.tabsinonefellswoop.com

 C	G	C	G	Am	F	G	G
-0------3-------0-------3-------0-------1-------3-------3--|
-1------3-------1-------3-------1-------1-------3-------3--|
-0------0-------0-------0-------2-------2-------0-------0--|
-2------0-------2-------0-------2-------3-------0-------0--|
-3------2-------3-------2-------0-------3-------2-------2--|
--------3---------------3---------------1-------3-------3--|

 C	G	Am	F
-0------3-------0-------1--|
-1------3-------1-------1--|
-0------0-------2-------2--|	x4
-2------0-------2-------3--|
-3------2-------0-------3--|
--------3---------------1--|

 C	G	Am	F	C
-0------3-------0-------1----------|
-1------3-------1-------1-------1--|
-0------0-------2-------2-------0--|	x1
-2------0-------2-------3-------2--|
-3------2-------0-------3-------3--|
--------3---------------1----------|
Tap to rate this tab
# A B C D E F G H I J K L M N O P Q R S T U V W X Y Z