Song name
# A B C D E F G H I J K L M N O P Q R S T U V W X Y Z

Dispatch - Blue Yellow tab

Woodriver Bandits
Little Hannah
Blue & Yellow - Dispatch cover
Tabbed by Owen Sakovics
www.tabsinonefellswoop.com

 E7	G	F	Am
-0------3-------1-------0--|
-0------3-------1-------1--|
-1------0-------2-------2--|	x2
-0------0-------3-------2--|
-2------2-------3-------0--|
-0------3-------1----------|

 E7	G	F	Am	D
-0------3-------1-------0-------2---2h3-3--|
-0------3-------1-------1-------3---3---3--|
-1------0-------2-------2-------2---2---2--|	x1
-0------0-------3-------2-------0---0---0--|
-2------2-------3-------0------------------|
-0------3-------1--------------------------|

 C	G	G	Em	C	Am	Am
-0------3-------3-------0-------0-------0-------0--|
-1------3-------3-------0-------1-------1-------1--|
-0------0-------0-------0-------0-------2-------2--|	x2
-2------0-------0-------2-------2-------2-------2--|
-3------2-------2-------2-------3-------0-------0--|
--------3-------3-------0--------------------------|

 E7	G	F	Am
-0------3-------1-------0--|
-0------3-------1-------1--|
-1------0-------2-------2--|	x2
-0------0-------3-------2--|
-2------2-------3-------0--|
-0------3-------1----------|

 E7	G	F	Am	D
-0------3-------1-------0-------2---2h3-3--|
-0------3-------1-------1-------3---3---3--|
-1------0-------2-------2-------2---2---2--|	x1
-0------0-------3-------2-------0---0---0--|
-2------2-------3-------0------------------|
-0------3-------1--------------------------|

 C	G	G	Em	C	Am	Am
-0------3-------3-------0-------0-------0-------0--|
-1------3-------3-------0-------1-------1-------1--|
-0------0-------0-------0-------0-------2-------2--|	x2
-2------0-------0-------2-------2-------2-------2--|
-3------2-------2-------2-------3-------0-------0--|
--------3-------3-------0--------------------------|

 E7	G	F	Am
-0------3-------1-------0--|
-0------3-------1-------1--|
-1------0-------2-------2--|	x3
-0------0-------3-------2--|
-2------2-------3-------0--|
-0------3-------1----------|

 E7	G	F	Am	D
-0------3-------1-------0-------2---2h3-3--|
-0------3-------1-------1-------3---3---3--|
-1------0-------2-------2-------2---2---2--|	x1
-0------0-------3-------2-------0---0---0--|
-2------2-------3-------0------------------|
-0------3-------1--------------------------|

 C	G	G	Em	C	Am	Am
-0------3-------3-------0-------0-------0-------0--|
-1------3-------3-------0-------1-------1-------1--|
-0------0-------0-------0-------0-------2-------2--|	x1
-2------0-------0-------2-------2-------2-------2--|
-3------2-------2-------2-------3-------0-------0--|
--------3-------3-------0--------------------------|

 C	G	G	Em	C	Am	Am	E7
-0------3-------3-------0-------0-------0-------0-------0--|
-1------3-------3-------0-------1-------1-------1-------0--|
-0------0-------0-------0-------0-------2-------2-------1--|	x1
-2------0-------0-------2-------2-------2-------2-------0--|
-3------2-------2-------2-------3-------0-------0-------2--|
--------3-------3-------0-------------------------------0--|
Tap to rate this tab
# A B C D E F G H I J K L M N O P Q R S T U V W X Y Z