Song name
# A B C D E F G H I J K L M N O P Q R S T U V W X Y Z

Dispatch - Time Served Gut The Van tab

e--------------------------------------------------7h8-7------------------|
B-----8-7-8----------8-7-8-------8-10-8-7-8----------------10-8-----------|
G--------------9------------9---------------------------------------------|
D-------------------------------------------------------------------------|
A-------------------------------------------------------------------------|
E-------------------------------------------------------------------------|


e----7-7h8-7------------7-7h8-7-------------------------------------------|
B---------------10----------------10-8-7-8-10-8-7-------------------------|
G-----------------------------------------------------9-9-9-9-9-9-9-------|
D-------------------------------------------------------------------------|
A-------------------------------------------------------------------------|
E-------------------------------------------------------------------------|


e---------------------------------------------------7-7-7-7-7-7-7---------|
B--7-7-7-7-7-7--8-8-8-8-8-8-8-8---10-10-10-10-10-10-----------------------|
G-------------------------------------------------------------------------|
D-------------------------------------------------------------------------|
A-------------------------------------------------------------------------|
E-------------------------------------------------------------------------|




e--8-8-8-8-8-8-8---10-10-10-10-10-10----12-12-----15--15--14--12--12-s-10-|
B-------------------------------------------------------------------------|
G-------------------------------------------------------------------------|
D-------------------------------------------------------------------------|
A-------------------------------------------------------------------------|
E-------------------------------------------------------------------------|



e-10-10-10--------------------10-------10---12--12----------------10------|
B------------12--10---10h12--------12--------------10---10h12------12--10-|
G-------------------------------------------------------------------------|
D-------------------------------------------------------------------------|
A-------------------------------------------------------------------------|
E-------------------------------------------------------------------------|


e---------10--10h12---10--------------------------------------------------|
B---10h12------------------12--10--10-------------------------------------|
G-------------------------------------------------------------------------|
D-------------------------------------------------------------------------|
A-------------------------------------------------------------------------|
E-------------------------------------------------------------------------|
Tap to rate this tab
# A B C D E F G H I J K L M N O P Q R S T U V W X Y Z