Guitaretab - guitar tabs
Song name
# A B C D E F G H I J K L M N O P Q R S T U V W X Y Z

Disrupt - From Protest To Resistance tab

-----------------------------------------------------------------
From Protest To Resistance - Disrupt
-----------------------------------------------------------------
Tabbed by: Dumpster Dan
Email: Sludgecoremadness@hotmail.com
[ Tab from: http://www.guitaretab.com/d/disrupt/79341.html ]
Tuning: DADGBe
Intro/Outro repeat as necesary
e|---------------------------------------------------------------|
B|---------------------------------------------------------------|
G|---10--6--3----------------------------------------------------|
D|---------------------------------------------------------------|
A|---------------------------------------------------------------|
D|---------------------------------------------------------------|
Riff 1 Strum
e|---------------------------------------------------------------|
B|---------------------------------------------------------------|
G|--5------------------------------------------------------------|
D|--5-6-3--------------------------------------------------------|
A|--3-6-3--------------------------------------------------------|
D|----6-3--------------------------------------------------------|
Riff 2 Strum
e|---------------------------------------------------------------|
B|---------------------------------------------------------------|
G|------5--------------------------------------------------------|
D|--1-3-5--------------------------------------------------------|
A|--1-3-3--------------------------------------------------------|
D|--1-3----------------------------------------------------------|

| /  slide up
| \  slide down
| h  hammer-on
| p  pull-off
| ~  vibrato
| +  harmonic
| x  Mute note
Related for From Protest To Resistance tab
Advertisement will be closed in 10 seconds