Song name
# A B C D E F G H I J K L M N O P Q R S T U V W X Y Z

Disrupt - Down My Throat tab

D|--------------------------------|
A|--------------------------------|
F|--------------------------------|
C|--------------------------------|
G|-2-2----------7---------6--5--2-|
D|-0-0------7-------6-----4--3--0-|



|-------------------------|
|-------------------------|
|-------------------------|
|------9------------------|
|-9----7----8-----6--5--2-|
|-7---------6-----4--3--0-|


Verse:
|------------------------------------------------------------|
|------------------------------------------------------------|
|------------------------------------------------------------|
|-------------------------9-7--------------------------------|
|-2-2-2-2-2-2-2-2-9-9-9-9-7-5-9-8-8-8-8-8-8-6-6-6-6-8-6-5-2--|
|-0-0-0-0-0-0-0-0-7-7-7-7-----7-6-6-6-6-6-6-4-4-4-4-6-4-3-0--|




|---------------------------------------------|
|---------------------------------------------|
|---------------------------------------------|
|---------------------------------------------|
|-7-7-7-7-8-7-5-2-2-5-5-5-9-8-9-10-9-8-7--8---|
|-5-5-5-5-6-5-3-0-0-3-3-3-7-6-7-8--7-6-5--6---|
Tap to rate this tab
# A B C D E F G H I J K L M N O P Q R S T U V W X Y Z