Song name
# A B C D E F G H I J K L M N O P Q R S T U V W X Y Z

Dissection - Where Dead Angels Lie Acousitc tab

Intro\ Acoustic Guitar 

E |------------------------0-----------------3---------------------|
B |---------------------------0-----------------3------------------|
G |------------------0-----------------------------3---------------|
D |-------------2-------------------------------------3------------|
A |---------2--------------------------------------------3---------|
E |----0----------------------------------------------------1------|

E |---------------------------------------------------0------------|
B |------------------------0-----------------------1-----1---------|
G |-------------------0--------0---------------0-----------0-------|
D |---------------2------------------------2-----------------2-----|
A |----------2--------------------------3--------------------------|
E |-----0----------------------------------------------------------|

E |------------------------0-----------------3---------------------|
B |---------------------------0-----------------3------------------|
G |------------------0-----------------------------3---------------|
D |-------------2-------------------------------------3------------|
A |---------2--------------------------------------------3---------|
E |----0----------------------------------------------------1------|

E |--------------------------------------------------------0-------|
B |------------------------0---------------------------4-------4---|
G |-------------------0--------0------------------5----------------|
D |---------------2--------------------------5---------------------|
A |----------2---------------------------3-------------------------|
E |-----0----------------------------------------------------------|



Acoustic Guitar
E |--------------------7---------------6--------------3-------------|
B |---------------8--------8---------------7--------------4---------|
G |----------9-----------------9---------------8--------------5-----|
D |-----9-----------------------------------------------------------|
A |-7---------------------------------------------------------------|
E |-----------------------------------------------------------------|
 
E |--------------------0--------2-----------------------------------|
B |---------------4-----------------3-------------------------------|
G |----------5--------------------------4---------------------------|
D |-----5------------------------------------4----------------------|
A |-3---------------------------------------------------------------|
E |-----------------------------------------------------------------|
Tap to rate this tab
 
# A B C D E F G H I J K L M N O P Q R S T U V W X Y Z