Song name
# A B C D E F G H I J K L M N O P Q R S T U V W X Y Z

Dissection - Elizabeth Bathory Live tab

Help us improve GuitareTab! Take a short survey!
-------------------------------------------------------------------------------
			     Elizabeth Bathory Live - Dissection
-------------------------------------------------------------------------------

This is the live version from 2004 in Stockholm from their DVD.


Tuning:Drop D (DADGbE)

Intro and 1. Verse
e|---------------------------------------------------------------------------|
B|---------------------------------------------------------------------------|
G|--------7-757-757-7----3---5-----------------------------------------------|
D|--------7-757-757-7---3---5------------------------------------------------|
A|--------5-535-535-5--1---3-------------------------------------------------|
D|---------------------------------------------------------------------------|

Chorus
e|-----------------------------------------------------------------------------|
B|-----------------------------------------------------------------------------|
G|--------7-7-----6-6-----7-7---------7-7----6-6------------------7------------|
D|--------7-7-----6-6-----7-7-----33--7-7----6-6-----------6------7------------|
A|--------5-5-5---4-4-5---5-5-5---33--5-5-5--4-4-5---------6------5------------|
D|------------0-------0-------0---33------0------0---------6-------------------|
              PM      PM      PM          PM     PM


e|---------------------------------------------------------------------------|
B|---------------------------------------------------------------------------|
G|--------757----757----757--------------------------------------------------|
D|--------757----757----757-----\\-------------------------------------------|
A|--------535----535----535-----\\-------------------------------------------|
D|------------------------------\\-------------------------------------------|         Pickslide

2. Verse
e|-----------------------------------------------------------------------------|
B|-----------------------------------------------------------------------------|
G|------------------------7-757-757-7----3---5---------------------------------|
D|-----0-7-3--33----------7-757-757-7---3---5----------------------------------|
A|-----0-7-3--33----------5-535-535-5--1---3-----------------------------------|
D|-----0-7-3--33---------------------------------------------------------------|

Bridge
e|------------------------------------------------------------6-------6--------|
B|----------------------------------------------------------8----7--8-6-7------|
G|--------------------------------7~-8-----7h8p7------------7----6--7---6------|
D|-------5~-8-4--7h8p7-----------------10-------10-----------------------------|
A|---------------------10-9------------------------10--------------------------|
D|-----------------------------------------------------------------------------|

e|---------------------------------------------------------------------------|
B|------8-----8--------------8-----4-----------------------------------------|
G|------7--5--7---5h7p5------7--5--3-----------------------------------------|
D|---------5--------------------5--------------------------------------------|
A|---------------------------------------------------------------------------|
D|---------------------------------------------------------------------------|


e|-----------------------------------------------------------------------------|
B|-----------------------------------------------------------------------------|
G|-------7---------------------------------------------------------------------|
D|-------7---------------------------------------------------------------------|
A|-------5---------------------------------------------------------------------|
D|-----------------------------------------------------------------------------|
   Strum this chord very fast for the last seconds.
Related for Elizabeth Bathory Live tab