Song name
# A B C D E F G H I J K L M N O P Q R S T U V W X Y Z

Dissection - Where Dead Angels Lie tab

Band - Dissection
Song - Where Dead Angels Lie
Album - Storm of the Light's Bane

Tuning - Standard [E A D G B e]

* = tremolo picking
/ = slide
h = hammer on
p = pull off

Intro x4
||---------0-----3-------------------------------3-----||
||-----------0-----3---------------0-----------4---4---||
||-------0-----0-----3-----------0---0-------5-------5-||
||-----2---------------3-------2-------2---5-----------||
||---2-----------------------2-----------3-------------||
||-0---------------------1-0---------------------------||

   x4
||---3-----------------||
||-----3---------------||
||-------3--------5--5-||
||----------------5--5-||
||-2-------3-2--2-3--3-||
||-0-------1-0--0------||

   x2                                x4
||---------------------------------|-------------------||
||---------------------------------|-------------------||
||-------4-----2-------------------|---9---12---9------||
||-2-5-2---2-5---4-5-2-2-5-2-4-5-0-|-9---9----9---10-7-||
||---------------------------------|-------------------||
||---------------------------------|-------------------||

   x2                                            x4
||---------------------------------------------|---------------------||
||---------------------------------------------|---------------------||
||---------4*-----2*---------------------------|---9*--12*--9*-------||
||-2*-5*-2*--2*-5*--4*-5*-2*-2*-5*-2*-4*-5*-0*-|-9*--9*---9*--10*-7*-||
||---------------------------------------------|---------------------||
||---------------------------------------------|---------------------||

Verse x4
||-------------------------------------------------------||
||-------8-7------------8-7------------8-7---------------||
||-----9-----8--------9-----8--------9-----8----5--4-----||
||---9---------9----9---------9----9---------9--5--4--2--||
||-7--------------7--------------7--------------3--2--2--||
||----------------------------------------------------0--||

Pre-Chorus [low part] x2            [high part] x2
||--------------------------------|------------------------------------||
||--------------------------------|----8-7-5-7-----------8-10-7--------||
||--------------------------------|-------------5--4-------------7--9--||
||----5--4-----------5-7-4--------|------------------------------------||
||----------3--2------------5--7--|------------------------------------||
||-0--------------0---------------|-0-----------------0----------------||

Chorus x2
||---------------------------------------------------------------||
||---------------------------------------------------------------||
||-----4-4-----5-5-----4-4-9-7-9-------4-4-----7-7-----4-4-5-4---||
||-----4-4-----5-5-----4-4-9-7-9-------4-4-5-5-7-7-----4-4-5-4---||
||-2-2-2-2-2-2-3-3-2-2-2-2-7-5-7---2-2-2-2-5-5-5-5-2-2-2-2-3-2-2-||
||-0-0-----0-0-----0-0-------------0-0-----3-3-----0-0---------0-||

||-------------------------------------------------------------------||
||------------------------------10-----------------------------------||
||-7/9--12-11-------9--12-12-11-----11-12--11h12p11-------9--12-11-9-||
||------------12-12---------------------------------12-12------------||
||-------------------------------------------------------------------||
||-------------------------------------------------------------------||

Verse x4
||-------------------------------------------------------||
||-------8-7------------8-7------------8-7---------------||
||-----9-----8--------9-----8--------9-----8----5--4-----||
||---9---------9----9---------9----9---------9--5--4--2--||
||-7--------------7--------------7--------------3--2--2--||
||----------------------------------------------------0--||

Pre-Chorus [low part] x2            [high part] x2
||--------------------------------|------------------------------------||
||--------------------------------|----8-7-5-7-----------8-10-7--------||
||--------------------------------|-------------5--4-------------7--9--||
||----5--4-----------5-7-4--------|------------------------------------||
||----------3--2------------5--7--|------------------------------------||
||-0--------------0---------------|-0-----------------0----------------||

Chorus x2
||---------------------------------------------------------------||
||---------------------------------------------------------------||
||-----4-4-----5-5-----4-4-9-7-9-------4-4-----7-7-----4-4-5-4---||
||-----4-4-----5-5-----4-4-9-7-9-------4-4-5-5-7-7-----4-4-5-4---||
||-2-2-2-2-2-2-3-3-2-2-2-2-7-5-7---2-2-2-2-5-5-5-5-2-2-2-2-3-2-2-||
||-0-0-----0-0-----0-0-------------0-0-----3-3-----0-0---------0-||

Solo
|-------------------------------------------------------------|
|------------10-----------------------------------------------|
|-9--9-11-12-----12--11h12p11--9--9--7h9p7-----------------9--|
|-------------------------------------------10--9--10--12-----|
|-------------------------------------------------------------|
|-------------------------------------------------------------|

|--------------------------------------------------------------------|
|------------------------------10------------------------------------|
|-7/9--12-11-------9--12-12-11-----11-12--11h12p11-------9--12-11-9--|
|------------12-12---------------------------------12-12-------------|
|--------------------------------------------------------------------|
|--------------------------------------------------------------------|

|-----------------------------------------10^--10^--|
|------------10--------------------12---------------|
|-9--9-11-12-----12--11h12p11--9-------9------------|
|---------------------------------------------------|
|---------------------------------------------------|
|---------------------------------------------------|

|------10-------10--12--10----12---------|
|-10^------10^--------------------12-----|
|-------------------------------------9--|
|----------------------------------------|
|----------------------------------------|
|----------------------------------------|

|--------------------------------------------------------------------|
|------------------------------10------------------------------------|
|-7/9--12-11-------9--12-12-11-----11-12--11h12p11-------9--12-11-9--|
|------------12-12---------------------------------12-12-------------|
|--------------------------------------------------------------------|
|--------------------------------------------------------------------|

Bridge [play both parts twice] x2
||-----------7-------6--------3--------|-----------0--2-----------||
||---------8----8-------7--------4-----|---------4-------3--------||
||-------9---------9-------8--------5--|-------5------------4-----||
||-----9-------------------------------|-----5-----------------5--||
||-7-----------------------------------|-3------------------------||
||-------------------------------------|--------------------------||
  [play both parts twice] x2
||------7*-------6*-------3*-------|----------------------||
||---------8*-------7*-------4*----|----------------------||
||------------9*-------8*-------5*-|----9*-11*------------||
||---------------------------------|-----------12*-9*-----||
||---------------------------------|------------------10*-||
||-0*------------------------------|-8*-------------------||

   x4
||---------------------||
||-----8---------------||
||-----9---------------||
||-2---9-3-2-----------||
||-2---7-3-2-----3-----||
||-0-----1-0--1-----1--||

Chorus x2
||---------------------------------------------------------------||
||---------------------------------------------------------------||
||-----4-4-----5-5-----4-4-9-7-9-------4-4-----7-7-----4-4-5-4---||
||-----4-4-----5-5-----4-4-9-7-9-------4-4-5-5-7-7-----4-4-5-4---||
||-2-2-2-2-2-2-3-3-2-2-2-2-7-5-7---2-2-2-2-5-5-5-5-2-2-2-2-3-2-2-||
||-0-0-----0-0-----0-0-------------0-0-----3-3-----0-0---------0-||

||-------------------------------------------------------------------||
||------------------------------10-----------------------------------||
||-7/9--12-11-------9--12-12-11-----11-12--11h12p11-------9--12-11-9-||
||------------12-12---------------------------------12-12------------||
||-------------------------------------------------------------------||
||-------------------------------------------------------------------||

Outro
x4
||---3-----------------||
||-----3---------------||
||-------3--------5--5-||
||----------------5--5-||
||-2-------3-2--2-3--3-||
||-0-------1-0--0------||

   x2                                x4
||---------------------------------|-------------------||------||
||---------------------------------|-------------------||------||
||-------4-----2-------------------|---9---12---9------||------||
||-2-5-2---2-5---4-5-2-2-5-2-4-5-0-|-9---9----9---10-7-||--2---||
||---------------------------------|-------------------||--2---||
||---------------------------------|-------------------||--0---||
Tap to rate this tab
 
# A B C D E F G H I J K L M N O P Q R S T U V W X Y Z