Song name
# A B C D E F G H I J K L M N O P Q R S T U V W X Y Z

Distillers - Desperate tab

The Distillers - Desperate
Sing Sing Death House (2002)
Standard Tuning

intro =

e------------------------------|
b------------------------------|
g------------------------------|
d------------------------------| x4 (Brody even tells you :P)
a--6-7-6-7-6-------------------|
E-7----------------------------|

then the chords are

e-------------|
b-------------|
g-------------|
d--7----5-----|
a--7----5-----|
E--5----3-----|

and you repeat these segments 3 times. (Until 0:14)

and that's the intro lol

have fun
Tap to rate this tab
# A B C D E F G H I J K L M N O P Q R S T U V W X Y Z