Song name
# A B C D E F G H I J K L M N O P Q R S T U V W X Y Z

Distillers - City Of Angels tab

This is only the basic power chords, no strumming patern.

Intro

E----------------|
B----------------|
G------7-------9-|
D------5-------7-|
A-5-4-5-4-5-7-6--|
E-3-2-3-2-3-5-4--|

E-------------------|
B-------------------|
G--4-5-7------------|
D--2-3-5------6-7-9-|
A-5-----4-5-7-4-5-7-|
E-3-----2-3-5-------|

Verse

E----------|
B----------|
G--------9-|
D-12-----7-|
A-10-12-7--|
E----10-5--|

Chorus and "Breakdown"

E-------|
B-------|
G--5--9-|
D--3--7-|
A-5--7--|
E-3--5--|

Weird Hammer on Pull off Part

E------|
B------|
G------|
D-7-p-5|
A------|
E------|

THESE ARE THE RIGHT TABS, I'VE PLAYED THEM WITH THE SONG MANY TIMES.
Tap to rate this tab
# A B C D E F G H I J K L M N O P Q R S T U V W X Y Z