Song name
# A B C D E F G H I J K L M N O P Q R S T U V W X Y Z

Distillers - For Tonight Youre Only Here To Know tab

Song:For Tonight You're Only Here To Know
Album:Coral Fang
Artist:The Distillers
Genre:Punk Rock
Year:2003
Tuning:Standard (E,A,D,G,B,E)

Intro x1
E---------------------------|
B-------------(    x4    )--|
G(    x4    )----------66---|
D-888-666------888-666------|
A---------66----------------|
E---------------------------|

E---------------------------|
B-------------(    x2    )--|
G(    x3    )----------66---|
D-888-666------888-666------|
A---------66----------------|
E---------------------------|

E----------------------------------|
B------------------------11111111--|
G------1010101010101010--10101010--|
D-8888--8-8-8-8-8-8-8-8---8-8-8-8--|
A----------------------------------|
E----------------------------------|

Verse 1 Pt.1 x2
E----------------|
B----------------|
G-4---------3----|
D-4x8--4----3x8--|
A-2----4x8--1----|
E------2---------|

Verse 1 Pt.2 x1
E----------------|
B----------------|
G-3----4----6----|
D-3x8--4x8--6x8--|
A-1----2----4----|
E----------------|

Chorus 1 Pt.1 x3
E---------------------|
B---------------------|
G-8--------------3----|
D-8x8--9----4----3x8--|
A-6----9x8--4x8--1----|
E------7----2---------|

Chorus 1 Pt.2 x1
E----------------------|
B----------------------|
G-8--------------3-----|
D-8x8--9----4----3x16--|
A-6----9x8--4x8--1-----|
E------7----2----------|

Chorus 1 Pt.3 x1
E---------------------(         x4       )--|
B(        x4        )----------------1414---|
G-151515-131313--------151515-131313--------|
D---------------1313------------------------|
A-------------------------------------------|
E-------------------------------------------|

Chorus 1 Pt.4 x1
E----------------|
B----------------|
G-3----4----6----|
D-3x8--4x8--6x8--|
A-1----2----4----|
E----------------|

Guitar Solo x2
E------------------------------------------------------|
B-/4--4--4-2-4/6~~--4-4--2-4-2/7~~--7-7-6-4-3-3333333--|
G------------------------------------------------------|
D------------------------------------------------------|
A------------------------------------------------------|
E------------------------------------------------------|

Breakdown Pt.1 x1
E----------------------|
B(    Palm Mute     )--|
G-8--------------3-----|
D-8x8--9----4----3x8---|
A-6----9x8--4x8--1-----|
E------7----2----------|

Breakdown Pt.2 x1
E-----------------------------|
B(    Palm Mute      )-(P.O)--|
G-8--------------3------3-----|
D-8x8--9----4----3x24---3x8---|
A-6----9x8--4x8--1------1-----|
E------7----2-----------------|

Chorus 2 Pt.1 x4
E---------------------|
B---------------------|
G-8--------------3----|
D-8x8--9----4----3x8--|
A-6----9x8--4x8--1----|
E------7----2---------|

Chorus 2 Pt.2 x1
E------------|
B------------|
G-------3----|
D-------3x8--|
A-------1----|
E------------|

Outro Pt.2 x1
E---------------------(        x4        )--|
B(        x4        )----------------1414---|
G-151515-131313--------151515-131313--------|
D---------------1313------------------------|
A-------------------------------------------|
E-------------------------------------------|

Outro Pt.2 x1
E-------------------------------|
B-------------------------------|
G-33333333--44444444--66666666--|
D-33333333--44444444--66666666--|
A-11111111--22222222--44444444--|
E-------------------------------|

Song Order:
*Intro x1
*Verse 1 Pt.1 x2
*Verse 1 Pt.2 x1
*Chorus 1 Pt.1 x3
*Chorus 1 Pt.2 x1
*Chorus 1 Pt.3 x1
*Chorus 1 Pt.4 x1
*Guitar Solo x2
*Breakdown Pt.1 x3
*Breakdown Pt.2 x1
*Chorus 2 Pt.1 x4
*Chorus 2 Pt.2 x1
*Outro Pt.1 x1
*Outro Pt.2 x1

Key:
/=Slide Up
~=Let Ring
P.O= Play Open

*Here Is A Link If You Wanna Play Along:
http://www.youtube.com/watch?v=wx9xWJJ6-O8

*Don't Forget To Rate And Comment If You
Liked The Tab, And Comment Any Corrections,
I Welcome Corrections.
Tap to rate this tab
# A B C D E F G H I J K L M N O P Q R S T U V W X Y Z