Guitaretab - guitar tabs
Song name
# A B C D E F G H I J K L M N O P Q R S T U V W X Y Z

Distillers - Coral Fang tab

This is a recopilation of all tabs of coral fang , finded in some pages
the order and the sounds are correctly , Please Write me to Best_dhg@hotmail.com

Thanks!!

"Drain the Blood"  3:08
"Dismantle Me"  2:26
"Die on a Rope"  2:39
"The Gallow Is God"  4:35
"Coral Fang"  2:09
"The Hunger"  5:27
"Hall of Mirrors"  3:49
"Beat Your Heart Out"  2:48
"Love Is Paranoid"  2:07
"For Tonight You're Only Here to Know"  3:18
"Death Sex"  12:17 (In process)

Tony Bradley - Second guitar
Brody Dalle - First guitar


01 The Distillers - Drain the Blood

Intro/verse:
Guitar 1:
1:-----------------------------|
2:--1-x-------x-1-1-1-x--------|
3:--2-x-1-1-1-x-0-0-0-x-1-1-1--|
4:--2-x-2-2-2-x-2-2-2-x-2-2-2--| x5
5:--0-x-2-2-2-x-3-3-3-x-2-2-2--|
6:----x-0-0-0-x-------x-0-0-0--|

Bridge:
1 and 2 guitar:

1:--------------------------|
2:--------------------------|
3:--------------------------|
4:--5-5-5-5-5-5-5/6-6-6-6---|
5:--5-5-5-5-5-5-5/6-6-6-6---|
6:--3-3-3-3-3-3-3/4-4-4-4---|

Intro/verse:
Guitar 1:                                   Guitar 2:

1:-----------------------------             1:----|
2:--1-x-------x-1-1-1-x--------             2:--1-|
3:--2-x-1-1-1-x-0-0-0-x-1-1-1--             3:--2-| x2
4:--2-x-2-2-2-x-2-2-2-x-2-2-2-- x3          4:--2-|
5:--0-x-2-2-2-x-3-3-3-x-2-2-2--             5:----|
6:----x-0-0-0-x-------x-0-0-0--             6:----|

Bridge:
1 and 2 guitar:

1:--------------------------|
2:--------------------------|
3:--------------------------|
4:--5-5-5-5-5-5-5/6-6-6-6---|
5:--5-5-5-5-5-5-5/6-6-6-6---|
6:--3-3-3-3-3-3-3/4-4-4-4---|

Chorus:
1 and 2 guitar:                                              Guitar 2:

1:---------------------------------------------              1:-----------|
2:---------------------------------------------              2:-----------|
3:--5-5-5-5-5-5-5-5----------------------------              3:--12/14~~--|
4:--5-5-5-5-5-5-5-5--5--7-7-7-7-7-7-7-7--5-5--- x 2          4:-----------| x2
5:--3-3-3-3-3-3-3-3--5--7-7-7-7-7-7-7-7--5-5---              5:-----------|
6:-------------------3--5-5-5-5-5-5-5-5--3-3---              6:-----------|

Chorus/Bridge:
1 and 2 guitar:

1:-------------------------------------------------|
2:-------------------------------------------------|
3:--5-5-5-5-5-5-5-5------------------------5--4----|
4:--5-5-5-5-5-5-5-5--5-5-5-5-5-5-5-5/6--6--5--4----|
5:--3-3-3-3-3-3-3-3--5-5-5-5-5-5-5-5/6--6--3--2----|
6:-------------------3-3-3-3-3-3-3-3/4--4----------|

Solo 1

Solo Backing
Intro/Verse                               Bridge:
Guitar 1:                                 Guitar 1:

1:-----------------------------           1:-------------------------|
2:--1-x-------x-1-1-1-x--------           2:-------------------------|
3:--2-x-1-1-1-x-0-0-0-x-1-1-1--           3:-------------------------|
4:--2-x-2-2-2-x-2-2-2-x-2-2-2-- x3        4:--5-5-5-5-5-5-5/6-6-6-6--|
5:--0-x-2-2-2-x-3-3-3-x-2-2-2--           5:--5-5-5-5-5-5-5/6-6-6-6--|
6:----x-0-0-0-x-------x-0-0-0--           6:--3-3-3-3-3-3-3/4-4-4-4--|

Solo 1:
2nd Guitar:

1:---------------------------------------------------------------|
2:---------------------------------------------------------------|
3:---------------------------------------------------------------|
4:---------------------------------------------/10-9-7-5-3-2-2~--|
5:--7~-7h5-3----2-3-2-2--5-3-3--7-5-5--8-7-7-7-------------------|
6:-----------5---------------------------------------------------|

Intro/verse:
Guitar 1:                                   Guitar 2:

1:-----------------------------             1:----|
2:--1-x-------x-1-1-1-x--------             2:--1-|
3:--2-x-1-1-1-x-0-0-0-x-1-1-1--             3:--2-| x2
4:--2-x-2-2-2-x-2-2-2-x-2-2-2-- x3          4:--2-|
5:--0-x-2-2-2-x-3-3-3-x-2-2-2--             5:----|
6:----x-0-0-0-x-------x-0-0-0--             6:----|

Bridge:
1 and 2 guitar:

1:--------------------------|
2:--------------------------|
3:--------------------------|
4:--5-5-5-5-5-5-5/6-6-6-6---|
5:--5-5-5-5-5-5-5/6-6-6-6---|
6:--3-3-3-3-3-3-3/4-4-4-4---|

Chorus:
1 and 2guitar:                                               Guitar 2

1:---------------------------------------------              1:-----------|
2:---------------------------------------------              2:-----------|
3:--5-5-5-5-5-5-5-5----------------------------              3:--12/14~~--|
4:--5-5-5-5-5-5-5-5--5--7-7-7-7-7-7-7-7--5-5--- x 3          4:-----------| x2
5:--3-3-3-3-3-3-3-3--5--7-7-7-7-7-7-7-7--5-5---              5:-----------|
6:-------------------3--5-5-5-5-5-5-5-5--3-3---              6:-----------|

Chorus/Bridge:
1 and 2 guitar:

1:-----------------------------------------------|
2:-----------------------------------------------|
3:--5-5-5-5-5-5-5-5------------------------5--4--|
4:--5-5-5-5-5-5-5-5--5-5-5-5-5-5-5-5/6--6--5--4--|
5:--3-3-3-3-3-3-3-3--5-5-5-5-5-5-5-5/6--6--3--2--|
6:-------------------3-3-3-3-3-3-3-3/4--4--------|

Solo 2

Bridge/Solo 2 Backing:
Guitar 1:

1:-----------------------------------------------------------------|
2:--1-1-x-1-1-1-x-1-1-1-x-1-1-1-x----------------------------------|
3:--2-2-x-2-2-2-x-2-2-2-x-2-2-2-x-1-1-1-x-1-1-1-x-1-1-1-x-1-1-1-x--|
4:--2-2-x-2-2-2-x-2-2-2-x-2-2-2-x-2-2-2-x-2-2-2-x-2-2-2-x-2-2-2-x--|      |
5:--0-0-x-0-0-0-x-0-0-0-x-0-0-0-x-2-2-2-x-2-2-2-x-2-2-2-x-2-2-2-x--|      |
6:--------------------------------0-0-0-x-0-0-0-x-0-0-0-x-0-0-0-x--|      |
                                                                         |   x3
1:------------------------------------------------------------------    ---|
2:------------------------------------------------------------------    ---|
3:------------------------------------------------------------------    ---|
4:--3-3-3-x-3-3-3-x-3-3-3-x-3-3-3-x-5-5-5-x-5-5-5-x-6-6-6-x-6-6-6-x--------|
5:--3-3-3-x-3-3-3-x-3-3-3-x-3-3-3-x-5-5-5-x-5-5-5-x-6-6-6-x-6-6-6-x--------|
6:--1-1-1-x-1-1-1-x-1-1-1-x-1-1-1-x-3-3-3-x-3-3-3-x-4-4-4-x-4-4-4-x--------|
        On x3 play this instead of the line above:
1:-------------------------------------|
2:-------------------------------------|
3:-------------------------------------|
4:--3-3-3-x-3-3-3-x-3-3-3-x-3-3-3-x-5--|
5:--3-3-3-x-3-3-3-x-3-3-3-x-3-3-3-x-5--|
6:--1-1-1-x-1-1-1-x-1-1-1-x-1-1-1-x-3--|

Solo 2:
Guitar 2:

1:-------------------------------------------------------------------------|
2:-------------------------------------------------------------------------|
3:--7/9--------------------------------------------------------------   ---|
4:-------------------------------------------------------------------   ---|
5:-------7h5-5h7-7h5-5h7-7h5-5h7-7h5-5h3-2--5h7-7h5-5h7-7h5-5h7-7h5--   ---|
6:-------------------------------------------------------------------   ---|
                                                                         |     x2
1:------------------------------------------------------                ---|
2:------------------------------------------------------                ---|
3:------------------------------------------------------                ---|
4:--7h5-5h7-7h5-5h7-7h5-5h7-7h5-5h7-7h5-5h3--------------------------------|
5:------------------------------------------7h5-5h7-7~---------------------|
6:-------------------------------------------------------------------------|
        On x2 play this instead of the line above:
1:-------------------------------------|
2:-------------------------------------|
3:-------------------------------------|
4:--7h5-5h7-7h5-5h7-7h5-5h7-7h5-5h7-7--|
5:-------------------------------------|
6:-------------------------------------|


Chorus:
1 and 2 guitar:                                              Guitar 2

1:---------------------------------------------              1:-----------|
2:---------------------------------------------              2:-----------|
3:--5-5-5-5-5-5-5-5----------------------------              3:--12/14~~--|
4:--5-5-5-5-5-5-5-5--5--7-7-7-7-7-7-7-7--5-5--- x 7          4:-----------| x2
5:--3-3-3-3-3-3-3-3--5--7-7-7-7-7-7-7-7--5-5---              5:-----------|
6:-------------------3--5-5-5-5-5-5-5-5--3-3---              6:-----------|

Bridge outro:
1 and 2 guitar:

1:-----------------------------------------------------|
2:-----------------------------------------------------|
3:--5-5-5-5-5-5-5-5------------------------5--4--2-2~--|
4:--5-5-5-5-5-5-5-5--5-5-5-5-5-5-5-5/6--6--5--4--2-2~--|
5:--3-3-3-3-3-3-3-3--5-5-5-5-5-5-5-5/6--6--3--2--0-0~--|
6:-------------------3-3-3-3-3-3-3-3/4--4--------------|

02 The distillers - Dismantle Me

Verse 1
G|-------------------9999999999999999-|
D|-66666666-77777777-9999999999999999-|
A|-66666666-77777777-7777777777777777-|
E|-44444444-55555555------------------|

CHORUS
G|----------77777777-9999999999999999--|
D|-55555555-77777777-9999999999999999--|
A|-55555555-55555555-7777777777777777--|
E|-33333333----------------------------|

BIT :
G|-------------------9999999999999999-|
D|-66666666-77777777-9999999999999999-|
A|-66666666-77777777-7777777777777777-|
E|-44444444-55555555------------------|

BREAKDOWN Next to BIT (PALM MUTE)
G|------------------------------------|
D|-------------------9999999999999999-|
A|-66666666-77777777-7777777777777777-|
E|-44444444-55555555------------------|

Interlude
G|-------7-------8-9999999999999999--|
D|-66666-7-77777-8-9999999999999999--|
A|-66666-5-77777-6-7777777777777777--|
E|-44444---55555---------------------|

G|-------------------9999999999999999-|
D|-66666666-77777777-9999999999999999-|
A|-66666666-77777777-7777777777777777-|
E|-44444444-55555555------------------|

04 The Distillers - The Gallow Is God

Intro/Verse
E|-----------------------||
B|---11----------x-------||
G|---22----------x-------||
D|---22---6/9/6--x-------||
A|--------6/9/6----------||
E|--------4/7/4----------||

E|-----------------------||
B|---11-----------0*-----||
G|---22-----------0*-----||
D|---22---6/9/6---0*-----||
A|--------6/9/6----------||
E|--------4/7/4----------||

Pre-chorus
E|-------------------------------------||
B|-------------------------------------||
G|-------------------------------------||
D|--77777777--66666666--44444444-------||
A|--77777777--66666666--44444444-------||
E|--55555555--44444444--22222222-------||

E|------------------||
B|------------------||
G|---------6--------||
D|--4-5-6--6--------||
A|--4-5-6--4--------||
E|--2-3-4-----------||

Chorus
E|------------------------------------------||
B|------------------------------------------||
G|--6-66-66---1-11-11---6-66-66---1-11-11---||
D|--6-66-66---2-22-22---6-66-66---2-22-22---||
A|--4-44-44---2-22-22---4-44-44---2-22-22---||
E|------------0-00-00-------------0-00-00---||

E|---------------------------------||
B|---------------------------------||
G|---------------------------------||
D|--4-44-44-44--456--7-77-77-77----||
A|--4-44-44-44--456--7-77-77-77----||
E|--2-22-22-22--234--5-55-55-55----||

Bridge
E|--------------------------------------------------------||
B|--------------------------------------------------------||
G|---222222--11111111-------------------------------------||
D|---222222--22222222---444444444-------------------------||
A|---000000--22222222---444444444-------------------------||
E|-----------00000000---222222222-------------------------||
     Do you do it...

Then
E|----------------------------||
B|----------------------------||
G|---666666666---111111111----||
D|---666666666---222222222----||
A|---444444444---222222222----||
E|---------------000000000----||
     In the sun...

E|----------------------------||
B|----------------------------||
G|----------------------------||
D|---77777777---44444444------||
A|---77777777---44444444------||
E|---55555555---22222222------||
   The willows give you shade...

Then
E|--------------------------------------||
B|--------------------------------------||
G|---6-66666---1-1111-------------------||
D|---6-66666---2-2222--44-4--4567-77----||
A|---4-44444---2-2222--44-4--4567-77----||
E|-------------0-0000--22-2--2345-55----||
     What a surprise...

Then
E|------------------------------||
B|------------------------------||
G|------------------------------||
D|--777777777--44444-4567-------||
A|--777777777--44444-4567-------||
E|--555555555--22222-2345-------||
    Like a blade...

Song order:

Intro x4
Verse x8
Chorus x2
Intro x2
Verse x8
Chorus x4
Bridge/Outro bit
Intro x1


05 The Distillers - Coral Fang

Verse 1 (Repeat 4 times)
G] 10------7-------------------------|
D] 10-(8x)-7-(8x)-7777777777777777---|
A] -8-------5------7777777777777777---|
E] ----------------5555555555555555---|

Chorus (Repeat 4 times)
G] -9----------------------------|
D] -9--7--6--7-------------------|
A] -7--7--6--7-------------------|
E] ----5--4--5-------------------|

Verse 2 (repeat twice)
G] -10------7---------------------------10*--7*-----------------------------|
D] -10-(8x)-7-(8X)-77-XX-77-XX-77-XX-77-XX--10*--7*--7777777777777777-------|
A] - 8------5------77-XX-77-XX-77-XX-77-XX-- 8*--5*--7777777777777777-------|
E] ----------------55-XX-55-XX-55-XX-55-XX-----------5555555555555555-------|

Song Structure:
Verse 1
Chorus
Verse 2
Chorus
Verse 2
Chorus

End On
G] 9
D] 9
A] 7


06 The Distillers - The Hunger Tab by Distillers

Tuning: STANDARD eBGDAE

Listen to the song for strumming patterns.

| /  slide up
| \  slide down
| #  bend up

Song Order:

Intro/Verse
Chorus
Solo #1 with Intro/Verse in the background
Intro/Verse
Chorus
Solo #2 with Intro/Verse in the background
Chorus
Fade 1
Fade 2


Intro/Verse (acoustic)

e|-0----0-----X------x----x------x---x-------x--------------------------|
B|-1----1-----X------x----x------x---x-------x--------------------------|
G|-2----0-----5------x----x------x---4-------x--------------------------|
D|-2----2-----5------5----3------2---4-------0--------------------------|
A|-0-x3-0-----3-x3---5----3-x4---2---2--x3---2--------------------------|
E|-0----0-----X------3----1------0---0-------3--------------------------|

Chorus (distorted)                        (This half at the end of chorus)

e|--x--x--x---x-x---x--x--x---x-x------------x--x-x----x---x-x----------|
B|--x--x--x---x-x---x--x--x---x-x------------x--x-x----x---x-x----------|
G|--x--x--x---x-x---x--x--x---x-x------------x--x-x----x---x-x----------|
D|--5--5--5---2-2---3--3--3---2-2------------5--5-5----2---2-2----------|
A|--5--5--5---2-2---3--3--3---2-2------x7----5--5-5----2---2-2----------|
E|--3--3--3---0-0---1--1--1---0-0------------3--3-3----0---0-0----------|

Solo #1 (before verse 2)
[ Tab from: http://www.guitaretab.com/d/distillers/47395.html ]
e|----------------------------------------------------------------------|
B|----------------------------------------------------------------------|
G|----------------------------------------------------------------------|
D|--7\5-5-5\2-2-2/3-3-3\2-----7\5-5-5/7------7\5-5-5/7-7-7/12-----------|
A|----------------------------------------------------------------------|
E|----------------------------------------------------------------------|

Solo #2

e|----------------------------------------------------------------------|
B|----------------------------------------------------------------------|
G|----------------------------------------------------------------------|
D|-10---10-9-7-9--------------------------------------------------------|
A|----------------10/12-12\11-11/1212/14--12/---------------------------|
E|----------------------------------------------------------------------|

e|----------------------------------------------------------------------|
B|----------------------------------------------------------------------|
G|----------------------------------------------------------------------|
D|---10-9-7-9-----------------------------------------------------------|
A|-------------10--10-8--12\11-11/1212/14--12/--------------------------|
E|----------------------------------------------------------------------|

e|----------------------------------------------------------------------|
B|----------------------------------------------------------------------|
G|----------------------------------------------------------------------|
D|----10-9-7-9-10--10/13--#13---10-9-10-7/----------10-9-7-9------------|
A|-----------------------------------------------------------10---------|
E|----------------------------------------------------------------------|

Last min. of Song

Play this twice, BUT play all 3 strings for the last two chords on the second time.

Fade 1

e|--x-------x--------x-------x------------------------------------------|
B|--x-------x--------x-------x------------------------------------------|
G|--2-------5--------x-------4------------------------------------------|
D|--2-------5--------3-------4------------------------------------------|
A|--x--x8---x--x8----3--x8---x--x8--------------------------------------|
E|--x-------x--------x-------x------------------------------------------|

Play this twice, BUT slow down the last chord at the end of the song.

Fade 2

e|-0-------x------x-------x---------0-----------------------------------|
B|-1-------x------x-------x---------1-----------------------------------|
G|-2-------5------x-------4---------2-----------------------------------|
D|-2-------5------3-------4---------2-----------------------------------|
A|-0--x8---3--x8--3--x8---2----x8---0-----------------------------------|
E|-0-------x------1-------x---------0-----------------------------------|

07 The distillers Hall Of Mirrors

Verse
e|--------------------------------------------------------------------------|
B|--------------------------------------------------------------------------|
G|---------33333333----------55555555---------------------------------------|
D|55555555-33333333-33333333-55555555---------------------------------------| (3X)
A|77777777-55555555-33333333-77777777---------------------------------------|
E|77777777----------55555555------------------------------------------------|

Chorus
e|--------------------------------------------------------------------------|
B|--------------------------------------------------------------------------|
G|33333333----------77777777-55555555---------------------------------------|
D|33333333-33333333-77777777-55555555---------------------------------------|
A|55555555-33333333-99999999-77777777---------------------------------------|
E|---------55555555---------------------------------------------------------|

Verse

Chorus

Break:

Guitar 1-Palm muted
e|--------------------------------------------------------------------------|
B|--------------------------------------------------------------------------|
G|---------33333333----------55555555---------------------------------------|
D|55555555-33333333-33333333-55555555---------------------------------------|
A|77777777-55555555-33333333-77777777---------------------------------------|
E|77777777----------55555555------------------------------------------------|

Guitar 2-Normal
e|----------------------------------------------------------------------------|
B|---------------------------12/1---------------------------------------------|
G|------------------1/12------------------------------------------------------|
D|---------12/1---------------------------------------------------------------|
A|1/12------------------------------------------------------------------------|
E|----------------------------------------------------------------------------|

Bridge = Verse

Chorus

And Ending bit
e|--------------------------------------------------------------------------|
B|--------------------------------------------------------------------------|
G|---------33333333----------55555555---------------------------------------|
D|55555555-33333333-33333333-55555555---------------------------------------|
A|77777777-55555555-33333333-77777777---------------------------------------|
E|77777777----------55555555------------------------------------------------|

  I watched you burn in the eye of my sun, in the eye of my sun yeah yeah
  I fucked you in, in the eye of my sun, in the the eye of my sun yeah yeah
  x2

e|----------------------------------------------------------------------------|
B|----------------------------------------------------------------------------|
G|33--------------------------------------------------------------------------|
D|33-3------------------------------------------------------------------------|
A|55-3------------------------------------------------------------------------|
E|---5------------------------------------------------------------------------|
  Yeah yeah

08 The distillers - Beat Your Heart Out

Standard Tuning

e|------------------|
b|------------------|
g|------------------|
d|-8-8-8-8-8-8-8-10-|
a|-8-8-8-8-8-8-8-10-|
e|-6-6-6-6-6-6-6-8--|

e|---------------|----------------------------|
b|---------------|----------------------------|
g|-7-------------|----------------------------|
d|-7-(8x)-5------|-2-2-2-5-5-5--8-------10-10-|
a|-5------5-(8x)-|-2-2-2-5-5-5--8-(10x)-10-10-|
e|--------3------|-0-0-0-3-3-3--6-------8--8--|

e|-----------------------------------------|
b|-----------------------------------------|
g|-7-7-7-7-7-7-7-7-------------------------|
d|-7-7-7-7-7-7-7-7-5-5-5-5-5-5-4-4-4-4-4-4-|
a|-5-5-5-5-5-5-5-5-5-5-5-5-5-5-4-4-4-4-4-4-|\
e|-----------------3-3-3-3-3-3-2-2-2-2-2-2-| \
					      \  (2X)
e|-------------------------------------------|  /
b|-------------------------------------------| /
g|-7-7-7-7-7-7-7-7---------------------------|
d|-7-7-7-7-7-7-7-7-4-4-4-4-4-4-5-5-5-5-5-5---|
a|-5-5-5-5-5-5-5-5-4-4-4-4-4-4-5-5-5-5-5-5---|
e|-----------------2-2-2-2-2-2-3-3-3-3-3-3---|

e|------------------|
b|------------------|
g|------------------|
d|-8-8-8-8-8-8-8-10-|
a|-8-8-8-8-8-8-8-10-|
e|-6-6-6-6-6-6-6-8--|

e|---------------|---------------------------------------|
b|---------------|---------------------------------------|
g|-7-------------|---------------------------------------|
d|-7-(8x)-5------|-2-2-2-5-5-5--2-2-2-5-5-5--2-2-2-5-5-5-|
a|-5------5-(8x)-|-2-2-2-5-5-5--2-2-2-5-5-5--2-2-2-5-5-5-|
e|--------3------|-0-0-0-3-3-3--0-0-0-3-3-3--0-0-0-3-3-3-|

e|-----------------------------------------|
b|-----------------------------------------|
g|-7-7-7-7-7-7-7-7-------------------------|
d|-7-7-7-7-7-7-7-7-5-5-5-5-5-5-4-4-4-4-4-4-|
a|-5-5-5-5-5-5-5-5-5-5-5-5-5-5-4-4-4-4-4-4-|\
e|-----------------3-3-3-3-3-3-2-2-2-2-2-2-| \
					      \  (2X)
e|-------------------------------------------|  /
b|-------------------------------------------| /
g|-7-7-7-7-7-7-7-7---------------------------|
d|-7-7-7-7-7-7-7-7-4-4-4-4-4-4-5-5-5-5-5-5---|
a|-5-5-5-5-5-5-5-5-4-4-4-4-4-4-5-5-5-5-5-5---|
e|-----------------2-2-2-2-2-2-3-3-3-3-3-3---|

e|---------------|-----------------------------------------|
b|---------------|-----------------------------------------|
g|-7-------------|-----------------------------------------|
d|-7-(8x)-5------|-2-2-2-5-5-5--2-2-2-5-5-5--8-------10-10-|
a|-5------5-(8x)-|-2-2-2-5-5-5--2-2-2-5-5-5--8-(10x)-10-10-|
e|--------3------|-0-0-0-3-3-3--0-0-0-3-3-3--6-------8--8--|

e|-----------------------|
b|-----------------------|
g|-7---------------------|
d|-7-(16x)-5------4------|
a|-5-------5-(8x)-4-(8x)-|
e|---------3------2------|
  all palm muted

e|-----------------------------------------|
b|-----------------------------------------|
g|-7-7-7-7-7-7-7-7-------------7-7-7-7-7-7-|
d|-7-7-7-7-7-7-7-7-4-4-4-4-4-4-7-7-7-7-7-7-|
a|-5-5-5-5-5-5-5-5-4-4-4-4-4-4-5-5-5-5-5-5-|
e|-----------------2-2-2-2-2-2-------------|

e|-------------------------------------|
b|-------------------------------------|
g|-7-------------7-------------10------|
d|-7-(8x)-5------7-(8x)-5------10-(8x)-|
a|-5------5-(8x)-5------5-(8x)-8-------|
e|--------3-------------3--------------|

e|-----------------------------------------|
b|-----------------------------------------|
g|-7-7-7-7-7-7-7-7-------------------------|
d|-7-7-7-7-7-7-7-7-5-5-5-5-5-5-4-4-4-4-4-4-|
a|-5-5-5-5-5-5-5-5-5-5-5-5-5-5-4-4-4-4-4-4-|
e|-----------------3-3-3-3-3-3-2-2-2-2-2-2-|

e|-----------------------------------------|
b|-----------------------------------------|
g|-7-7-7-7-7-7-7-7-------------------------|
d|-7-7-7-7-7-7-7-7-5-5-5-5-5-5-4-4-4-4-4-4-|
a|-5-5-5-5-5-5-5-5-5-5-5-5-5-5-4-4-4-4-4-4-|
e|-----------------3-3-3-3-3-3-2-2-2-2-2-2-|

e|--------------------------------------|
b|--------------------------------------|
g|-7-------------10-------------10------|
d|-7-(8x)-5------10-(8x)-5------10-(8x)-|
a|-5------5-(8x)-8-------5-(8x)-8-------|
e|--------3--------------3--------------|

e|---|
b|---|
g|-7-|
d|-7-|
a|-5-|
e|---|

09 The distillers - Love Is Paranoid (2:07)

Intro=Verse
e|----------------------------|
B|----------------------------|
G|--10-------6---5------------|
D|--10---6---6---5------------|
A|---8---6---4---3------------|
E|-------4--------------------|

Chorus
e|----------------------------|
B|----------------------------|
G|---------------6------------|
D|---3---6---8---6------------|
A|---3---6---8---4------------|
E|---1---4---6----------------|

Bridge
e|-----------------------------|
B|-----------------------------|
G|-------9---10---9------------|
D|---6---9---10---9------------|
A|---6---7----8---7------------|
E|---4-------------------------|

Outro
e|-----------------------------|
B|-----------------------------|
G|------9---10-----------------|
D|--6---9---10-----------------|
A|--6---7----8-----------------|
E|--4--------------------------|


Verse  x4
Chorus x2
Verse  x4
Chorus x4
Bridge x1
Outro  x2
Bridge x1
Outro  x7

10 The Distillers - For Tonight Your Only Here To Know

standard tuning

Intro:
[--------------------------------------------]
[--------------------------------------------]
[--------------------------------------------] 8X
[-999-777----999-777----999-777----999-777---]
[--------77---------77---------77---------77-]
[--------------------------------------------]

Verse:
[--------------------------------------------]
[--------------------------------------------]
[-55555555----------44444444-55555555--------]
[-55555555-55555555-44444444-55555555--------]\
[-33333333-55555555-22222222-33333333--------] \
[----------33333333--------------------------]  \
                                                 \  X2
[---------------------------------------------|   /
[---------------------------------------------|  /
[-55555555----------44444444-99999999---------| /
[-55555555-55555555-44444444-99999999---------|/
[-33333333-55555555-22222222-77777777---------|
[----------33333333---------------------------|

[----------------------------------------------]
[----------------------------------------------]
[-5-4--5-4--5-4--------------------------------]
[-5-4--5-4--5-4--------------------------------]
[-3-2--3-2--3-2--------------------------------]
[----------------------------------------------]

Chorus:
[----------------------------------------------------]
[----------------------------------------------------]
[-99999999----------------------------------44444444-]
[-99999999-10-10-10-10-10-10-10-10-55555555-44444444-]
[-77777777-10-10-10-10-10-10-10-10-55555555-22222222-]
[----------8--8--8--8--8--8--8--8--33333333----------]

Solo:
[----------------------------------------------------------|\
[----------------------------------------------------------| \
[-9-9-9-7-9-11^-9-7-9-7-9-12-12-12-11-9-8------------]  \--| X2
[----------------------------------------------------------|  /
[----------------------------------------------------------| /
[----------------------------------------------------------|/

Bridge:
[----------------------------------------------------]
[----------------------------------------------------]
[-99999999----------------------------------44444444-]
[-99999999-10-10-10-10-10-10-10-10-55555555-44444444-]
[-77777777-10-10-10-10-10-10-10-10-55555555-22222222-]
[----------8--8--8--8--8--8--8--8--33333333----------]
 PM...................................................


11 The Distillers - Death sex

Shoot your gun.....

e|-----------------------------------------------------|
B|-----------------------------------------------------|
G|---------------77------------------------------------|
D|-22222222/5555-77-77-2222----------------------------|
A|-22222222/5555-55-77-2222----------------------------|
E|---------/3333----55---------------------------------|  repeat until

I came so hard...

e|--------------------------------------------------------|
B|--------------------------------------------------------|
G|------5555------7---------------------------------------|
D|-2222-5555-5555-7-7-2222--------------------------------|
A|-2222-3333-5555-5-7-2222--------------------------------|
E|-----------3333---5-------------------------------------|

2nd guitar plays this  during I came so hard...

e|----------------------------------------------------|
B|----------------------------------------------------|
G|-101010-------101010--------------------------------|
D|-------99999--------99999-77777777-99999999---------|
A|----------------------------------------------------|
E|----------------------------------------------------|
Related for Coral Fang tab