Song name
# A B C D E F G H I J K L M N O P Q R S T U V W X Y Z

Distillers - Love Is Paranoid tab

By:savo(gwiz88@hotmail.com,email me if you think somethings wrong,have anything to add 
im pretty sure its ok..)

Intro/Verse
e|------------------------------------------------------------|
B|------------------------------------------------------------|
G|-10-10-10-10-10-10-10-10-------------------6-6-6-6-6-6-6-6--|
D|-10-10-10-10-10-10-10-10--6-6-6-6-6-6-6-6--6-6-6-6-6-6-6-6--|
A|--8--8--8--8--8--8--8--8--6-6-6-6-6-6-6-6--4-4-4-4-4-4-4-4--|
E|--------------------------4-4-4-4-4-4-4-4-------------------|

e|---------------------|
B|---------------------|
G|---------------------|
D|---5-5-5-5-5-5-5-5---|
A|---5-5-5-5-5-5-5-5---|
E|---3-3-3-3-3-3-3-3---|

Chorus
e|---------------------------------------------------------|
B|---------------------------------------------------------|
G|---------------------------------------------------------|
D|---3-3-3-3-3-3-3-3--6-6-6-6-6-6-6-6--8-8-8-8-8-8-8-8-----|
A|---3-3-3-3-3-3-3-3--6-6-6-6-6-6-6-6--8-8-8-8-8-8-8-8-----|
E|---1-1-1-1-1-1-1-1--4-4-4-4-4-4-4-4--6-6-6-6-6-6-6-6-----|

B|--------------------|
G|---6-6-6-6-6-6-6-6--|
D|---6-6-6-6-6-6-6-6--|
A|---4-4-4-4-4-4-4-4--|
E|--------------------|

Bridge
e|-----------------------------|
B|-----------------------------|
G|-------9---10---9------------|
D|---6---9---10---9------------|
A|---6---7----8---7------------|
E|---4-------------------------|

Outro

e|-----------------------------------------------------------------|
B|-----------------------------------------------------------------|
G|--------------------9-9-9-9-9-9-9-9---10-10-10-10-10-10-10-10----|
D|--6-6-6-6-6-6-6-6---9-9-9-9-9-9-9-9---10-10-10-10-10-10-10-10----|
A|--6-6-6-6-6-6-6-6---7-7-7-7-7-7-7-7----8--8--8--8--8--8--8--8----|
E|--4-4-4-4-4-4-4-4------------------------------------------------|


Verse
Chorus
Verse
Chorus
Bridge
Outro
Bridge
Outro
Tap to rate this tab
# A B C D E F G H I J K L M N O P Q R S T U V W X Y Z