Song name
# A B C D E F G H I J K L M N O P Q R S T U V W X Y Z

Distillers - The World Comes Tumblin tab

Intro
e|---------------------------------|
B|---------------------------------|
G|-------7---------7--5---------7--|
D|--5----7----5----7--5----5----7--|
A|--5----5----5----5--3----5----5--|
E|--3---------3---------------3----|

Verse
e|-------------------------------------------------------------|
B|-------------------------------------------------------------|
G|------5-------7-------5-------7---9---7---9---7---9---7---3--|
D|--5---5---5---7---5---5---5---7---9---7---9---7---9---7---5--|
A|--5---3---5---5---5---3---5---5---7---5---7---5---7---5---3--|
E|--3-------3-------3-------3----------------------------------|

Chorus
e|---------------------|
B|---------------------|
G|------5---7---5------|
D|--5---5---7---5---5--|
A|--5---3---5---3---5--|
E|--3---------------3--|

Bridge (palm mutted and not)
e|----------------------------------------------|
B|----------------------------------------------|
G|----------------------------------------------|
D|--7----7-9-5----5----5-7-----------7-9-5---5--|
A|--5----5-7-3----3----3-5-5----5----5-7-3---3--|
E|-------------------------3----3---------------|
Tap to rate this tab
 
# A B C D E F G H I J K L M N O P Q R S T U V W X Y Z