Song name
# A B C D E F G H I J K L M N O P Q R S T U V W X Y Z

Distillers - Bullet And The Bullseye tab

Band: The Distillers
Album: Sing Sing Death House
Song: Bullet and the Bullseye
Tuning: Standard (eBGDAE)

 x: muted note (don't mute them so much that you can't hear them)
>>: pick slide (scrape)

...Intro...
|-------------------------------------|
|-------------------------------------|
|-------10-x-x-9-x-x-10-x-9-x---------| Repeat as Neccesary
|-------10-x-x-9-x-x-10-x-9-x-7-------|
|-------8--x-x-7-x-x-8--x-7-x-7-------|
|-----------------------------5---(>>)| (pick slide on last repeat only)

   *Pause for Bass Solo*

...Chorus...
|---------------------------------|
|---------------------------------|
|------------x-7-------x-6--------|
|-------x-4--x-7--x-7--x-6--5-----|
|-------x-4--x-5--x-7--x-4--5-----|
|-------x-2-------x-5-------3-----|

...Verse...
|-------------------------------------|
|-------------------------------------|
|-------10-x-x-9-x-x-10-x-9-x---------| Reapeat as Neccesary
|-------10-x-x-9-x-x-10-x-9-x-7-------|
|-------8--x-x-7-x-x-8--x-7-x-7-------|
|-----------------------------5---(>>)| (pick slide on last repeat only)

...Outro...
|---------------------------------|
|---------------------------------|
|----------x-7-------x6--5--4-----|
|-------4--x-7--x-7--x6--5--4--4--|
|-------4--x-5--x-7--x4--3--2--4--|
|-------2-------x-5------------2--|
Tap to rate this tab
 
# A B C D E F G H I J K L M N O P Q R S T U V W X Y Z