Song name
# A B C D E F G H I J K L M N O P Q R S T U V W X Y Z

Distillers - Oldscratch tab

The Distillers - Oldscratch

e|-3-----1-----0-----|-3-----1-----0-----|-3-----1-----0-----|
b|-3-----1-----0-----|-3-----1-----0-----|-3-----1-----0-----|
g|-4-----2-----1-----|-4-----2-----1-----|-4-----2-----1-----|
d|-5-----3-----2-----|-5-----3-----2-----|-5-----3-----2-----|
a|-5(8x)-3(4x)-2(4x)-|-5(8x)-3(4x)-2(4x)-|-5(8x)-3(4x)-2(4x)-|
E|-3-----1-----0-----|-3-----1-----0-----|-3-----1-----0-----|

e|-3-----1-----0-----|-3-----1-----0-----|
b|-3-----1-----0-----|-3-----1-----0-----|
g|-4-----2-----1-----|-4-----2-----1-----|
d|-5-----3-----2-----|-5-----3-----2-----|
a|-5(4x)-3(4x)-2(8x)-|-5(4x)-3(4x)-2(8x)-|
E|-3-----1-----0-----|-3-----1-----0-----|

e|-3-----1-----0-----|-3-----0-----1-----|-3-----3-3--1-1---0-----|
b|-3-----1-----0-----|-3-----0-----1-----|-3-----3-3--1-1---0-----|
g|-4-----2-----1-----|-4-----1-----2-----|-4-----4-4--2-2---1-----|
d|-5-----3-----2-----|-5-----2-----3-----|-5-----5-5--3-3---2-----|
a|-5(8x)-3(4x)-2(4x)-|-5(8x)-2(4x)-3(4x)-|-5(4x)-5-5--3-3---2(4x)-|
E|-3-----1-----0-----|-3-----0-----1-----|-3-----3-3--1-1---0-----|

e|-3-----1-----0-----|-3-----1-----0-----|
b|-3-----1-----0-----|-3-----1-----0-----|
g|-4-----2-----1-----|-4-----2-----1-----|    x2
d|-5-----3-----2-----|-5-----3-----2-----|   
a|-5(4x)-3(4x)-2(8x)-|-5(4x)-3(4x)-2(8x)-|
E|-3-----1-----0-----|-3-----1-----0-----|


e|-3-3---1-1---0---|-3-3---1-1---0---|
b|-3-3---1-1---0---|-3-3---1-1---0---|
g|-4-4---2-2---1---|-4-4---2-2---1---|
d|-5-5---3-3---2---|-5-5---3-3---2---|
a|-5-5---3-3---2---|-5-5---3-3---2---|
E|-3-3---1-1---0---|-3-3---1-1---0---|

Punks not dead!!
Tap to rate this tab
 
# A B C D E F G H I J K L M N O P Q R S T U V W X Y Z