Song name
# A B C D E F G H I J K L M N O P Q R S T U V W X Y Z

Distillers - Solvent tab

-------------------------------------------------------------------------------
			     Solvent - The Distillers
-------------------------------------------------------------------------------
Tabbed by: Rodolfo Urbano Batista
Email: ninlivz@yahoo.com.br

Intro/Verse
e|--------------------------------| |-------------------------------|
B|--------------------------------| |-------------------------------|
G|--------------------------------| |-------------------------------|
D|--5\7-7--5\7-7--5\7-7------2----| |--5\7-7--5\7-7--5\7-7-7-7-7-7--|
A|--5\7-7--5\7-7--5\7-7--2-3---3--| |--5\7-7--5\7-7--5\7-7-7-7-7-7--|
E|--3\4-4--3\4-4--3\4-4-----------| |--3\4-4--3\4-4--3\4-4-4-4-4-4--|


Chorus
e|-----------------------------------------------------------|
B|-----------------------------------------------------------|
G|-----------------------------------------------------------|
D|--7-7-7-7-7-7-7-7-7-7--6--5--3-3-3-3-3-3-3-3-3-3--6-6-6-6--|
A|--7-7-7-7-7-7-7-7-7-7--6--5--3-3-3-3-3-3-3-3-3-3--6-6-6-6--|
E|--5-5-5-5-5-5-5-5-5-5--4--3--1-1-1-1-1-1-1-1-1-1--4-4-4-4--|

  -----------------------------------------------------------|
  -----------------------------------------------------------|
  -----------------------------------------------------------|
  --7-7-7-7-7-7-7-7-7-7--6--5--3-3-3-3-3-3-3-3-3-3--6-6-6-6--|
  --7-7-7-7-7-7-7-7-7-7--6--5--3-3-3-3-3-3-3-3-3-3--6-6-6-6--|
  --5-5-5-5-5-5-5-5-5-5--4--3--1-1-1-1-1-1-1-1-1-1--4-4-4-4--|

  -----------------------------------------------------------|
  -----------------------------------------------------------|
  -----------------------------------------------------------|
  --7-7-7-7-7-7-7-7-7-7--6--5--3-3-3-3-3-3-3-3-3-3--6-6-6-6--|
  --7-7-7-7-7-7-7-7-7-7--6--5--3-3-3-3-3-3-3-3-3-3--6-6-6-6--|
  --5-5-5-5-5-5-5-5-5-5--4--3--1-1-1-1-1-1-1-1-1-1--4-4-4-4--|

  --------------------------------------------------------|
  --------------------------------------------------------|
  --------------------------------------------------------|
  --7-7-7-7-7-7-7-7-7-7--6--5--3-3-3-3-3-3-6-6-6-6-6-6-6--|
  --7-7-7-7-7-7-7-7-7-7--6--5--3-3-3-3-3-3-6-6-6-6-6-6-6--|
  --5-5-5-5-5-5-5-5-5-5--4--3--1-1-1-1-1-1-4-4-4-4-4-4-4--|

  -----------------------------|
  -----------------------------|
  -----------------------------|
  --3-3-3-3-3-3-6-6-6-6-6-6-6--|
  --3-3-3-3-3-3-6-6-6-6-6-6-6--|
  --1-1-1-1-1-1-4-4-4-4-4-4-4--|


Ending Solo
e|---------------------------|
B|----------------5------5---|
G|----------------5b-----5b--|
D|--5b--3--5b--3------3------|
A|---------------------------|
E|---------------------------|


Ends with
e|-----|
B|-----|
G|-----|
D|--3--|
A|--3--|
E|--1--|

===============================================================================
Tap to rate this tab
# A B C D E F G H I J K L M N O P Q R S T U V W X Y Z