Song name
# A B C D E F G H I J K L M N O P Q R S T U V W X Y Z

Distillers - Deathsex tab

the Distillers-Deathsex


I only tabbed,that part where brody is singing...
that must be first 3 minutes or so.

I dont know if its all right,just try it out
it sounds right to me.


Shoot your gun.....

e|-----------------------------------------------------|
B|-----------------------------------------------------|
G|---------------77------------------------------------|
D|-22222222/5555-77-77-2222----------------------------|
A|-22222222/5555-55-77-2222----------------------------|
E|---------/3333----55---------------------------------|  repeat until


I came so hard...

e|--------------------------------------------------------|
B|--------------------------------------------------------|
G|------5555------7---------------------------------------|
D|-2222-5555-5555-7-7-2222--------------------------------|
A|-2222-3333-5555-5-7-2222--------------------------------|
E|-----------3333---5-------------------------------------|

2nd guitar plays this  during I came so hard...

e|----------------------------------------------------|
B|----------------------------------------------------|
G|-101010-------101010--------------------------------|
D|-------99999--------99999-77777777-99999999---------|
A|----------------------------------------------------|
E|----------------------------------------------------|


thats all

tabbed by
Amy_b_@web.de
Tap to rate this tab
# A B C D E F G H I J K L M N O P Q R S T U V W X Y Z