Song name
# A B C D E F G H I J K L M N O P Q R S T U V W X Y Z

Distillers - Mattress See One Of Their My Spaces tab

I have the intro/ verse i think ill try & put more up later

The distillers
Mattress
Standard

e|----------------------------------------------------------------|
B|----------------------------------------------------------------|
G|----------------------------------------------------------------|
D|----------2-----------------------------------------------------|
A|--------3---3--3-3-3--3-3---------------------------------------|
E|5-5-7-5--------------------3-3-3--3-3-3--3-3--5-5-5--5-5-5--5-5-|  X2

Basically when I put the 2 -'s the next note is emphasised

The second time through play this

|-------------------------------------|
|-------------------------------------|
|-------------------------------------|
|-------------------------------------|
|-5-5-5--5-5-5--5-5--7-7-7--7-7-7--7-7|
|-3-3-3--3-3-3--3-3--5-5-5--5-5-5--5-5|

----------------------------------------------------------------------------

An alternative way to play the first but is

|---------------|
|---------------|
|---------------|
|-----------2---|
|-0-0-2-0-3---3-|
|---------------|

So there it is gimme some feed back cause this is my first tab
Tap to rate this tab
# A B C D E F G H I J K L M N O P Q R S T U V W X Y Z