Song name
# A B C D E F G H I J K L M N O P Q R S T U V W X Y Z

Distillers - Distilla Truant tab

Help us improve GuitareTab! Take a short survey!
Distilla Truant - The Distillers
Self Titled Cd (2000)
Standard tuning


intro =

e--------------------------------------------------------------------|
b--------------------------------------------------------------------|
g---------7-7-7-7-----------7-7-7-7---------7-7-7-7------------------|
d-7-7-7-7-7-7-7-7-7-7-7-7-7-7-7-7-7-5-5-5-5-7-7-7-7-7-7-7-7-7-5-5-6--|
a-7-7-7-7-5-5-5-5-7-7-7-7-7-5-5-5-5-5-5-5-5-5-5-5-5-7-7-7-7-7-5-5-6--|
E-5-5-5-5---------5-5-5-5-5---------3-3-3-3---------5-5-5-5-5-3-3-4--|

e------------------------------------------------------------------------|
b------------------------------------------------------------------------|
g---------7-7-7-7-----------7-7-7-7---------7-7-7-7----------------------|
d-7-7-7-7-7-7-7-7-7-7-7-7-7-7-7-7-7-5-5-5-5-7-7-7-7-7-7-7-7-7-7-7-7-7-7--|
a-7-7-7-7-5-5-5-5-7-7-7-7-7-5-5-5-5-5-5-5-5-5-5-5-5-7-7-7-7-7-7-7-7-7-7--|
E-5-5-5-5---------5-5-5-5-5---------3-3-3-3---------5-5-5-5-5-5-5-5-5-5--|

up until around 0:35
Though you can kind of hear a few chord changes before, but this pattern will work fine. 
if you don't like it, tab it yourself lol

enjoy!
Related for Distilla Truant tab