Song name
# A B C D E F G H I J K L M N O P Q R S T U V W X Y Z

Distillers - Case Of The Swirls tab

e-----------------------------------------|
b-----------------------------------------|
g-------------------------8-8-8-8-8-8-8-8-|
d--9--9 -9--9-12-12-12-12-9-9-9-9-9-9-9-9-|
a-10-10-10-10-10-10-10-10-----------------|
E-----------------------------------------|

e----------------------------------------|
b----------------------------------------|
g----------------------------------------|
d-9-9-9-9-7-7-7-7-5-5-5-5-5-5-5-5--------|
a-9-9-9-9-9-9-9-9-7-7-7-7-7-7-7-7--------|
E----------------------------------------|


e----------------------------------------|
b----------------------------------------|
g----------------------------------------|
d----------------------------------------|
a-7-7-7-7-9-9-9-9-6-6-6-6-6-6-6-6--------|
E-8-8-8-8-8-8-8-8-7-7-7-7-7-7-7-7--------|
Tap to rate this tab
# A B C D E F G H I J K L M N O P Q R S T U V W X Y Z