Song name
# A B C D E F G H I J K L M N O P Q R S T U V W X Y Z

Distortion - Wire In Your Face tab

Intro

e----------------------------------|
H----------------------------------|
G-----------------------5-3--------|
D---------------------------5------|
A-2-2-3-5--2-2-5-7--5-5------------|
E-2-2-3-5--2-2-5-7--3-3------------| 2x

Strophe

e----------------------------------|
H----------------------------------|
G----------------------------------|
D----------------------------------|
A-2-2-2-2-2-2-2-2-3-3-3-3----------|
E-0-0-0-0-0-0-0-0-3-3-3-3----------| 3x

Refrain

as soon as possibile
Tap to rate this tab
# A B C D E F G H I J K L M N O P Q R S T U V W X Y Z